Song name
# A B C D E F G H I J K L M N O P Q R S T U V W X Y Z

Joe Hisaishi - Ano Natsu He One Summer Day tab

I've searched for tabs for this song for a long time to the point of frustration 
so, I tabbed this out by ear. I hope you guys like it. ^,^ ~Ryo-sama~
                  
Ano Natsu He (One Summer Day)
By: Joe Hisaishi

E|-----------------------------------|
A|--5------4------3-----1-----2------|
D|--5------4------3-----1-----2------|
G|--5------4------3-----1-----2-2-2--|
B|--6-6-6--5-5----4-----2-----3------|
e|-----------------------------------|

E|------------------------------------------------|
A|--0----------------------0----------------------|
D|--0----------------------0----------------------|
G|--0----------------------0----------------------|
B|--5-5-5-5-5-3-5--5--3-3--3-3-3-3-3-1-3--3-1-0-1-|
e|---------------5-----------------------3--------|

E|----------------------------------------------|
A|----------------------------------------------|
D|----------------------------------------------|
G|--2-4-5-5-5-5--2-4-5-5-4-5--2-4-5-5-5-5-------|
B|-------------------------------------------4-3|
e|----------------------------------------3-1---|

E|---------------------------------------------------------|
A|--0------------------------------------------------------|
D|--0------------------------------------------------------|
G|--0------------------------------------------------------|
B|--3------------------3-3---1---1------------------3-3---1|
e|----1--3-3-3-3-3-1-0-----0-------1--3-3-3-3-3-1-0-----0--|

E|------------------|
A|-------------0-3--|
D|------------------|
G|------------------|
B|--1-3-5-----------|
e|------------------|

END
Tap to rate this tab
# A B C D E F G H I J K L M N O P Q R S T U V W X Y Z