Song name
# A B C D E F G H I J K L M N O P Q R S T U V W X Y Z

Joe Hisaishi - The Name Of Life tab

The Name of Life

Intro:
e|12--10-15-12--10----------------15--------------------------------------|
B|10--------10-------12-13-15--13----15--13--12-10------------------------|
G|12--------12-------------14--------14-----------------------------------|
D|------------------------------------------------------------------------|
A|------------------------------------------------------------------------|
E|------------------------------------------------------------------------|

(A)
e|------------------17---------------------------------15-----------------|
B|17-17-17-17-15-17----17-15-15------15-15-15-15-13-15----15-13-12-13-----|
G|------------------------------------------------------------------------|
D|------------------------------------------------------------------------|
A|------------------------------------------------------------------------|
E|------------------------------------------------------------------------|

e|------------------------------------------------------------------------|
B|10h12-13-13-13-13-13-13------10h12-13-13-13-13-12-13--------------------|
G|------------------------------------------------------------------------|
D|------------------------------------------------------------------------|
A|------------------------------------------------------------------------|
E|------------------------------------------------------------------------|

e|---------------------15-------------------------------------------------|
B|10h12-13-13-13-13-13----13-15----17-18-19-19--19-19-18-17-------17------|
G|----------------------------------------------------------19-19----17---|
D|------------------------------------------------------------------------|
A|------------------------------------------------------------------------|
E|------------------------------------------------------------------------|

e|------------------------------------------------------------------------|
B|17-18-19-19--19-19-18-17-------17~-----------17-------------------------|
G|-------------------------19-19---------17-19-------17-------------------|
D|------------------------------------------------19----------------------|
A|------------------------------------------------------------------------|
E|------------------------------------------------------------------------|

(B)
e|------------10------------------------------------------------------------------|
B|10-12-13-13----13-12-------10-10-----------------------------------------9------|
G|----------------------9-12-------12-10-12----12-12-10-10-8-10------10-12---12---|
D|----------------------------------------------------------------10--------------|
A|--------------------------------------------------------------------------------|
E|--------------------------------------------------------------------------------|

e|------------10---------------------------------------------------------------------|
B|10-12-13-13----13-12-------10-10---------------------------------------------------|
G|----------------------9-12-------12-10-12---12-12-10-10-8-10---12-13-15-13-13-12-13|
D|-----------------------------------------------------------------------------------|
A|-----------------------------------------------------------------------------------|
E|-----------------------------------------------------------------------------------|

e|------------------------------------------------------------------------|
B|---------13~--------13~---13-12-13-15~-----13-12-13~--------------------|
G|12h13-15------13-15---------------------12------------------------------|
D|------------------------------------------------------------------------|
A|------------------------------------------------------------------------|
E|------------------------------------------------------------------------|

1st Ending Go To (C) 2nd Ending Go To (D) 3rd Ending Go To (E)

                                    (C)
e|---------5----------------5--------|
B|---5---5--5---5-----5---5---5---5--|
G|-----7------7---------7-------7----| x2
D|-----------------------------------|
A|(8)-------------(7)----------------|
E|-----------------------------------|

Go Back To (A)



(D)
(Do not start immediately) 
e|--------8--------------7h8-10-8~--7h8-10-8~--10~-8-7-8~-10~-----|
B|6-5-4-5----5-5~---3---------------------------------------------|
G|----------------------------------------------------------------|
D|----------------------------------------------------------------|
A|----------------------------------------------------------------|
E|----------------------------------------------------------------|

Go Back To (B)


(E)
e|--------15----------------------15-----------------------------12~--24~---|
B|17~-15~---17~-15~--12-13-15~-12~---15~-13~-12-10~---10~---8~---10~--22~---|
G|---------------------------------------------------------------12~--24~---|
D|--------------------------------------------------------------------------|
A|--------------------------------------------------------------------------|
E|--------------------------------------------------------------------------|

End

Tap to rate this tab
# A B C D E F G H I J K L M N O P Q R S T U V W X Y Z