Song name
# A B C D E F G H I J K L M N O P Q R S T U V W X Y Z

Joe Jackson - Different For Girls tab

E---9-9-9-9-9-9-9-9---|
B----7-7-7-7-7-7-7-7--| Riff 1
G---------------------| Repeat this 6 times over
D---------------------|
A---------------------|
E---------------------|

E---9-9-9-9-9-9-9-----|
B----7-7-7-7-7-7-7----|
G-----------------10--|Riff 2
D---------------------|
A---------------------|
E---------------------|

Repeat Riff 1 another 2 times.
Repeat Riff 2 once more.

what the hell is wrong with you tonight?
I can't seem to say or do the right thing
Wanted to be sure you're feeling right
Wanted to be sure we want the same thing


E--7--6---6-6-6-7--6--7---6---6-6-6-7--6|
B--7--7---7-7-7-7--7--7---6---6-6-6-7--6| 
G--8--6---6-6-6-8--6--8---6---6-6-6-8--6| 
D--9------------9-----9-------------9---|
A---------------------------------------|
E---------------------------------------|

She said
"I don't believe it
You can't - possibly mean it"

E--7--6---6-6-6-7--6--7---6---4---7|
B--7--7---7-7-7-7--7--7---6---5---7| 
G--8--6---6-6-6-8--6--8---6---6---8| 
D--9------------9-----9-----------9|
A----------------------------------|
E----------------------------------|

Don't we - all want the same thing?
Don't we?
Who said anything about love?

 
E---2----4----6----4--|---5----7-----9-----7-|
B---------------------|----------------------| 
G--3----4----6----4---|--6----8-----9-----8--| 
D-4--4-6--6-8--8-6--6-|-7--7-9--9-11--11-9--9| play twice 
A---------------------|----------------------|
E---------------------|----------------------|

no, not love, she said
 don't you know that it's different for girls?
Don't give me love
 no, not love, she said
 don't you know that it's different for girls?

[After playing 2nd time play]

E----9-----7----9|
B---------------9| 
G---9-----8----10| 
D-11--11-9--9--11| 
A----------------|
E----------------|

You’re all the same

[Go right back to riffs 1 and 2 and follow the song on]

mama always told me: save yourself
Take a little time and find the right girl
Then again don't end up on the shelf
Logical advice gets you in a whirl
I know - a lot of things that
You don't - you wanna hear some?
She said:
 just give me something
Anything
Give me all you got but not love
 no, not love, she said
 don't you know that it's different for girls?
Don't give me love
 no, not love, she said
 don't you know that it's different for girls?
You're all the same
 you're all the same
 you're all the same
 you're all the same
 you're all the same
 you're all the same
 you're all the same
 you're all the same
 give me anything but not love
 no, not love, she said
 don't you know that it's different for girls?
Don't give me love
no, not love, she said
 don't you know that it's different for girls?
Don't give me love
 no, no, no, not love, she said
 don't you know that it's different for girls?
Don't give me love
 no, not love, she said
 don't you know that it's different for girls?
 you're all the same
Tap to rate this tab
# A B C D E F G H I J K L M N O P Q R S T U V W X Y Z