Song name
# A B C D E F G H I J K L M N O P Q R S T U V W X Y Z

Joe Nichols - Brokenheartsville tab

Tabbed by: Kyle Casey
Tabbed: Feb. 2012
STANDARD TUNING


ENJOY!


INTRO:
E---------------------3-------------------------------------|
B-------3h1---1/3-1-----3h1--1------------------------------|
G-3--------3---------------3---0---2-3-2-0------------------|
D-----3------------------------------------3-1---0-1-0------|
A------------------------------------------------------3-1--|
E-----------------------------------------------------------|

E----------|
B----------|
G----------|  <----- mostly steel guitar playing
D----------|
A----------|
E---3--1---|


VERSE:
He wore that cowboy hat to cover up his horns..

E---3--------------1-------------|
B-----3h1--1---------3h1---------|
G--------3---0-3--------3-0------|
D---------------------------3----|
A--------------------------------|
E--------------------------------|

Sweet talkin' forked tongue had a temptin' charm..

E---2--3---------------------|
B--------1b--1---------------|
G----------3--3-----3h5-3----|
D----------------3h5---------|
A----------------------------|
E----------------------------|

Before I turned around, that girl was gone.. (Wait 3 sec, then play)

E---------------------------|
B---------------------------|
G--------3------3-----------|
D----3h5-3--3h5-3---5h3-1---|
A---------------------------|
E---------------------------|

All I can say is bartender pour me something strong

               E--------------------------------------------------|
               B--------------------------------------------------|
               G----3/5------------------------3-3-3--------------|
               D-------------------------------3-3-3--------------|
               A-------------------------------1-1-1---1-0--------|
               E-------------------------------------------3---1--|

CHORUS:

  Here's to the past they can kiss my glass I hope she's happy with him
E---------------------------------------------------------------------------|
B---------------------------------------------------------------------------|
G---------------------------------------------8----------8----------3-------|
D-3-------------3-------------5-------5-------8----------8----------3-------|
A-3-------------3-------------5-------5-------6----------6----------1-1-0---|
E-1-------------1-------------3-------3----------------------------------3--|

  Here's to the girl who wrecked my world, the angel who did me in

E---------------------------------------------------------------------------|
B---------------------------------------------------------------------------|
G----------------------------------------------3---------3------10----------|
D-3-------------3--------5----------5----------3---------3------8----------3|
A-3-------------3--------5----------5----------1---------1------8-----3-3h5-|
E-1-------------1--------3----------3------------------------------3h5------|

  I think the devil drives a Coupe de Ville

E------------------------------------------|
B------------------------------------------|
G-3-----------3--------------5--------5----|
D-3-----------3--------------5--------5----|
A-1-----------1--------------3--------3----|
E------------------------------------------|

  I watched him drive away over the hill
E---------------------------------------|
B---------------------------------------|
G--------------------------8--------8---|
D-5-------------5----------8--------8---|
A-5-------------5----------6--------6---|
E-3-------------3-----------------------|

  Not against her will     I've got time to kill
E----------------------------------------------------|
B----------------------------------------------------|
G------3----------3----------------------------------|
D------3----------3-----------------3------------3---|
A------1----------1-----------------3------------3---|
E-----------------------------------1------------1---|

  Down in Brokenheartsville
E---------------------------|
B---------------------------|
G---------8---------3-------|
D-5-------8---------3-------|
A-5-------6---------1-------|
E-3-------------------------|

E---------------------3-------------------------------------|
B-------3h1---1/3-1-----3h1--1------------------------------|
G-3--------3---------------3---0---2-3-2-0------------------|
D-----3------------------------------------3-1---0-1-0------|
A------------------------------------------------------3-1--|
E-----------------------------------------------------------|

E----------|
B----------|
G----------|  <----- mostly steel guitar playing
D----------|
A----------|
E---3--1---|


VERSE: (This part of the verse is just piano)

It was long and chrome sitting in the lot..

Fire engine red that thing was hot..

He revved it up she waved goodbye..

Love's gone to hell and so have I.. 

A-1-0------|
E-----3--1-|

CHORUS: (REPEAT 2 TIMES!)
 
 Here's to the past they can kiss my glass I hope she's happy with him
E---------------------------------------------------------------------------|
B---------------------------------------------------------------------------|
G---------------------------------------------8----------8----------3-------|
D-3-------------3-------------5-------5-------8----------8----------3-------|
A-3-------------3-------------5-------5-------6----------6----------1-1-0---|
E-1-------------1-------------3-------3----------------------------------3--|

  Here's to the girl who wrecked my world, the angel who did me in

E---------------------------------------------------------------------------|
B---------------------------------------------------------------------------|
G----------------------------------------------3---------3------10----------|
D-3-------------3--------5----------5----------3---------3------8----------3|
A-3-------------3--------5----------5----------1---------1------8-----3-3h5-|
E-1-------------1--------3----------3------------------------------3h5------|

  I think the devil drives a Coupe de Ville

E------------------------------------------|
B------------------------------------------|
G-3-----------3--------------5--------5----|
D-3-----------3--------------5--------5----|
A-1-----------1--------------3--------3----|
E------------------------------------------|

  I watched him drive away over the hill
E---------------------------------------|
B---------------------------------------|
G--------------------------8--------8---|
D-5-------------5----------8--------8---|
A-5-------------5----------6--------6---|
E-3-------------3-----------------------|

  Not against her will     I've got time to kill
E----------------------------------------------------|
B----------------------------------------------------|
G------3----------3----------------------------------|
D------3----------3-----------------3------------3---|
A------1----------1-----------------3------------3---|
E-----------------------------------1------------1---|

  Down in Brokenheartsville
E---------------------------|
B---------------------------|
G---------8---------3-------|
D-5-------8---------3-------|
A-5-------6---------1-------|
E-3-------------------------|

OUTRO:
E---------------------3-------------------------------------|
B-------3h1---1/3-1-----3h1--1------------------------------|
G-3--------3---------------3---0---2-3-2-0------------------|
D-----3------------------------------------3-1---0-1-0------|
A------------------------------------------------------3-1--|
E-----------------------------------------------------------|

E----------|
B----------|
G----------|  <----- mostly steel guitar playing
D----------|
A----------|
E---3--1---|

Then it fades out repeating...
Tap to rate this tab
# A B C D E F G H I J K L M N O P Q R S T U V W X Y Z