Song name
# A B C D E F G H I J K L M N O P Q R S T U V W X Y Z

Joe Perry - Discount Dogs tab

          

                                                                         
E||---------------------------||--------------------|---------------------|
B||---------------------------||--------------------|---------------------|
G||*--------------------7~---*||--------------------|-------------7/-9----|
D||*--------------------7----*||--------------7/-9--|----9/-11----5/-7----|
A||---5--4-5--4h5--7----------||--------------5/-7--|----7/-9-------------|
E||---------------------------||--------------------|---------------------|


                            3x                           3x                             
|---------------------------||---------------------------||------|------|------|------||
|---------------------------||---------------------------||------|------|------|------||
|*--------------------7/---*||*--------------------7/---*||------|------|------|------||
|*--------------------7/---*||*--------------------7/---*||------|------|------|------||
|---5--4-5--4h5--7----------||---5--4-5--4-5--7----------||------|------|------|------||
|---------------------------||---------------------------||------|------|------|------||


Tap to rate this tab
# A B C D E F G H I J K L M N O P Q R S T U V W X Y Z