Song name
# A B C D E F G H I J K L M N O P Q R S T U V W X Y Z

Joe Purdy - Goldfish tab

-------------------------------------------------------------------------------
			    GOLDFISH - JOE PURDY
-------------------------------------------------------------------------------
Tabbed by: Beaverbrun
Email: beaverbrun@yahoo.com

Tuning: Standard

INTRO / BETWEEN VERSES

e|---------------------------------------------------------------------------|
B|-------1------------------1------------------------------------------------|
G|-----0---0-------0------0--------------------------------------------------|
D|---2-------2---2----2h3-------REAPEAT--------------------------------------|
A|-3-----------3-------------------------------------------------------------|
E|---------------------------------------------------------------------------|

VERSE / CHORUS

e|---------------------------------------------------------------------------|
B|-------1----------1-------------1------------------------------------------|
G|-----0---0------2-------0-----0----0--------0-----0------------------------|
D|---2-------2--3-------2-----2--------2----0-----2--------------------------|
A|-3------------------3-----3-------------------3----------------------------|
E|----------------------------------------3----------------------------------|

e|---------------------------------------------------------------------------|
B|-------1----------1-------------1--------------------------1---------------|
G|-----0---0------2-------0-----0----0--------0-----0------0---0---------0---|
D|---2-------2--3-------2-----2--------2----0-----2------2-------2-----0-----|
A|-3------------------3-----3-------------------3------3---------------------|
E|----------------------------------------3--------------------------3-------|


| /  slide up
| \  slide down
| h  hammer-on
| p  pull-off
| ~  vibrato
| +  harmonic
| x  Mute note
==============================================================================
Tap to rate this tab
# A B C D E F G H I J K L M N O P Q R S T U V W X Y Z