Song name
# A B C D E F G H I J K L M N O P Q R S T U V W X Y Z

Joe Purdy - Wash Away tab

~_~ Capo 5th Fret ~_~

e|------------------------------------------------------------------|
b|------------------------------------------------------------------|
g|------------------------------------------------------------------|
d|------------------------------------------------------------------|
a|--3~~--5--7-----------------3-3h5---------------------------------|
e|---------------5~~-----3~~---------3/5~~3~~-----------------------|

e|------------------------------------------------------------------|
b|------------------------------------------------------------------|
g|------------------------------------------------------------------|
d|------------------------------------------------------------------|
a|--3~~--5h7---------5--5h7--5----3--3h5--3~~3~~--------------------|
e|-------------5~~--------------------------------------------------|
Tap to rate this tab
# A B C D E F G H I J K L M N O P Q R S T U V W X Y Z