Song name
# A B C D E F G H I J K L M N O P Q R S T U V W X Y Z

Joe Purdy - You Dont Like Me Anyway tab

-------------------------------------------------------------------------------
			     You don't like me anyway - Joe Purdy
-------------------------------------------------------------------------------
Tabbed by: jake
Email: wujo10@aol.com

This is the main part of the song, im not too sure about the solo, so just make
something up in D/Dm. I like to use  pick, its easier to get the hammer on bits.

Tuning:

e|---------------------------------------------------------------------------|
B|---------------------------------------------------------------------------|
G|--------7--------7--------7-------------------------7----------------------|
D|-----7---------7--------7--h9p7-------------------7---9p7------------------|
A|-7h9-------7h9------7h9-----------9p7---------7h9---------9p7--------------|
E|---------------------------------------5--7--------------------------------|

                                                    then right at the end...
e|---------------------------------------------------------------------------|
B|-------------------------------------------------------10--7---------------|
G|--------7--------7--------7---------------------------7------9-7---7-------|
D|-----7---------7--------7--h9p7----------------------7-----------9---------|
A|-7h9-------7h9------7h9-----------9p7---------------7----------------------|
E|---------------------------------------5--7--10----------------------------|
Tap to rate this tab
# A B C D E F G H I J K L M N O P Q R S T U V W X Y Z