Song name
# A B C D E F G H I J K L M N O P Q R S T U V W X Y Z

Joe Purdy - Far Away Blues tab

Joe Purdy
"Far Away Blues"

The rhythm is pretty easy, you guys can figure it out


Intro
e----------------------2-----------------------2---|
B---(4)---(4)---(9)----2----(4)---(4)---(9)----2---|
G----4-----4-----9-----3-----4-----4-----9-----3---|
D----4-----4-----9-----4-----4-----4-----9-----4---|
A----2-----6-----7-----4-----2-----6-----7-----4---|
E----x-----x-----x-----2-----x-----x-----x-----2---|

Verse
e----------------------------2--|
B---(4)-----(4)-----(9)------2--|
G----4-------4-------9-------3--|
D----4-------4-------9-------4--|
A----2-------6-------7-------4--|
E----x-------x-------x-------2--|
"Oh the weather ain't so fine today"
"Oh the water's mad"
"So please don't take me the wrong way"

e----------------------------2--|
B---(4)-----(4)-----(9)------2--|
G----4-------4-------9-------3--|
D----4-------4-------9-------4--|
A----2-------6-------7-------4--|
E----x-------x-------x-------2--|
"Darling it's just right for me"
"She's been fighting with the wind"
"Things are fine and people are great, but"

Chorus
e----0-------2-------------------|
B----0-------2-------------------|
G----1-------3--------4/3--------|
D----2-------4--------6----6-----|
A----2-------4--------6------6/7-|
E----0-------2--------4----------|
"I've been thinking of you"

e----0-------2------------------------------2--|
B----0-------2-----(4)-----(4)-----(9)------2--|
G----1-------3------4-------4-------9-------3--|
D----2-------4------4-------4-------9-------4--|
A----2-------4------2-------6-------7-------4--|
E----0-------2------x-------x-------x-------2--|
"Got these far away blues"

Between the first chorus and second verse:

e---------------------------------|
B---(4)-----(4)----(4)-----(4)----|
G----4-------4------4-------4-----|
D----4-------4------4-------4-----|
A----2-------6------2-------6-----|
E----x-------x------x-------x-----|

Between the second chorus and third verse:
e----------------------------2--|
B---(4)-----(4)-----(9)------2--|
G----4-------4-------9-------3--|
D----4-------4-------9-------4--|
A----2-------6-------7-------4--|
E----x-------x-------x-------2--|


Last Chorus: there's an extra "got these far away blues"

e------------4-------0--------2-----------------|
B---(4)------4-------0--------2------(4)--------|
G----4-------4-------1--------3-------4---------|
D----4-------6-------2--------4-------4---------|
A----2-------6-------2--------4-------2---------|
E----x-------4-------0--------2-------x---------|
Tap to rate this tab
 
# A B C D E F G H I J K L M N O P Q R S T U V W X Y Z