Song name
# A B C D E F G H I J K L M N O P Q R S T U V W X Y Z

Joe Purdy - Mary May And Bobby tab

I forgot to mention this needs a capo on 4th fret, standard tuning.

Intro and part of the verse: 

E------2-----------3-----3----3-----3--3------|
B--------3---------3-----3----3-----3--3------|
G-----2----2-------------0----0-----0--0------|   x2
D---0---0----0----------------2---------------|
A----------------2------------2---------------|
E--------------3------2-------0---------------|

"It was a fine day in the 5th grade"
E----------2-----------3-----3----3-----3--3------|
B------------3---------3-----3----3-----3--3------|
G---------2----2-------------0----0-----0--0------|
D-------0---0----0----------------2---------------|
A--------------------2------------2---------------|
E------------------3------2-------0---------------|

"When Mary May let Bobby walk her home from school"
E------2-----------3-----3------3--------------------3--3------|
B--------3---------3-----3------3--------------------3--3------|
G-----2----2-------------0------0--------------------0--0------|
D---0---0----0------------------2------------------------------|
A----------------2--------------2------------------------------|
E--------------3------2---------0------------------------------|

"He had her books in hand and he was listening, to every word she said"
E-----------2--------------3-------3-------3----------------------3--3---|
B-------------3------------3-------3-------3----------------------3--3---|
G----------2----2------------------0-------0----------------------0--0---|
D-------0----0----0------------------------2-----------------------------|
A------------------------2-----------------2-----------------------------|
E----------------------3--------2----------0-----------------------------|

"like it was the gospel of the prophecies"
E-------------2-----------3-----3----3-----3--3------|
B---------------3---------3-----3----3-----3--3------|
G------------2----2-------------0----0-----0--0------|
D----------0---0----0----------------2---------------|
A-----------------------2------------2---------------|
E---------------------3------2-------0---------------|
Tap to rate this tab
# A B C D E F G H I J K L M N O P Q R S T U V W X Y Z