Song name
# A B C D E F G H I J K L M N O P Q R S T U V W X Y Z

Joe Robinson - Struttin It tab

Hey guys, my first tab pretty sure its 99% accurate, any questions don't hesitate

INTRO
e|------------|------------|------------|----------------|
B|------------|------------|------------|----------------|
G|------------|------------|------------|----------------|
D|------------|------------|------------|----------------|
A|------------|------------|------------|----------------|
E|-0-3-5-7-9/0|-0-3-5-7-9/0|-0-3-5-7-9/0|-0-3-5/7-5-3-2-0|
______________________________________________________________
MAIN RIFF:
e|----------0---|---------0----|----------0---|---------0----|
B|---3/5--3-----|-10-----------|---3/5--3-----|-10-----------|
G|---2/4--4-----|----12--------|---2/4--4-----|----12--------|
D|--------5-----|-------0-----0|--------5-----|-------0-----0|
A|--------------|-0------------|--------------|-0------------|
E|-0------3-----|-----------7--|-0------3-----|-----------7--|
______________________________________________________________
e|------------------------ *|-------------------------------7|
B|-12-12--10-10--8-8--7-7- *|---------------------7h8p7p6h7--|
G|-12-12--11-11--9-9--8-8- *|------------8h9p8p7h8-----------|OR 
D|------------------------ *|-9h10p9p8h9---------------------|
A|------------------------ *|--------------------------------|
E|-12-12--10-10--8-8--7-7- *|--------------------------------|

e|-2h3p2p0-----------------------------<12>-|
B|---------3-0-------------------------<12>-|
G|-------------2h3p2p0|---------------------|
D|---------------------2-0------------------|BACK TO MAIN RIFF
A|------------------------1h2p2p1p0---------|
E|-----------------------------------3------|

BRIDGE:be sure to hit base note on the marked beats
e|------------7-----------|---0-2-3-5-3-2h3p2|x2
B|---7--8--10---10-8h10p8-|------------------|
G|---9--9--9----9--9------|---4--------------|
D|---10-10-10---10-10-----|---5--------------|
A|-0----0-----0----0------|------------------|
E|------------------------|-0---0---0---0----|
   1 +  2  +  3 +  4   +    1 + 2 + 3 + 4 +

e|-8-7-------------------|------------|------------|----------------|
B|-----10-8--------------|------------|------------|----------------|
G|----------7h8p7--------|------------|------------|----------------|
D|----------------9-8----|------------|------------|----------------|
A|--------------------9-7|------------|------------|----------------|
E|-----------------------|------------|------------|----------------|

All necessary parts included, listen to the song to get the structure right :) GOOD LUCK
Tap to rate this tab
# A B C D E F G H I J K L M N O P Q R S T U V W X Y Z