Song name
# A B C D E F G H I J K L M N O P Q R S T U V W X Y Z

Joe Satriani - Theme For A Strange World tab

Theme for a Strange World

Rhythm Guitar

EADGBe


Intro Riff
-------------------------------------------------------------------------------------|
-------------------------------------------------------------------------------------|
-------------------------------------------------------------------------------------|
-------------------------------------------------------------------------------------|
-----------------5-5--------------3-3-5-5-------------------5-5-----------3-3-3-3----|
-5-5-5-3-5-3-3-3-----5-5-5-3-5-3------------5-5-5-3-5-3-3-3-------1-1-1-1------------|


Verse Riff (0:29) 2 times
-------------------------------------------------|-------------------------------|
-------------------------------------------------|-------------------------------|
-------------------------------------------------|-------------------------------|
-------------------------------------------------|-------------------------------|
-------------------------------------------------|-------------------------------|
-5-5-5-3-5-3-5-5-5-3-5-3-5-5-5-3-5-3-5-5-5-3-5-3-|-5-5-5-3-5-3-5-5-5-3-5-3-------|


--------------------------------------------------------------------------------|
--------------------------------------------------------------------------------|
--------------------------------------------------------------------------------|
--------------------------------------------------------------------------------|
-8-8-8-6-8-6-8-8-8-6-8-6--------------------------------------------------------|
--------------------------7-7-7-5-7-5-7-7-7-5-7-5-6-6-6-5-6-5-6-6-6-5-6-5-------|


After Verse Riff 1:05
-------------------------------|
-------------------------------|
-------------------------------|
-------------------------------|
--7-7-7-5-7-5-7-7-7-5-7-8------|
-------------------------------|


1:19 the Verse Riff again, than the after verse riff at 1:48

2:02 The Intro Riff again


Bridge (2:31)
---------------------------------------------------------|
---------------------------------------------------------|
---------------------------------------------------------| 2 times
---------------------------------------------------------|
---------------------------------------------------------|
--3-5-5-5-5-3-5-5-3-5-6----3-5-5-5-5-3-5-5-3-5-3---------|


Bridge 2 (2:46)
---------------------------------------------------------|
---------------------------------------------------------|
---------------------------------------------------------|
---------------------------------------------------------|
---------------------------------------------------------|
--0-2-2-2-2-0-2-2-0-2-3----0-2-2-2-2-0-2-2-0-2-0---------|


There's another little riff at 3:15 that I can't figure out, maybe you can!


3:22 the Verse Riff again, than the After Verse Riff at 3:51

4:05 the Intro Riff
Tap to rate this tab
 
# A B C D E F G H I J K L M N O P Q R S T U V W X Y Z