Song name
# A B C D E F G H I J K L M N O P Q R S T U V W X Y Z

Joe Satriani - Secret Prayer tab

----------------------------------|
-Tabbed By Nlecaros---------------|
-Dude i didnt catch the Solo,Sory-
----------------------------------


Secret Prayer
Joe Satriani

E---------------------------------------------------------------------------------|
B-----------------------------------------------------------------------14--------|
G------------------------------------------11-----------------15-----11----11-----|
D-------8-------11----------------13-----9----9-----------13-------9--------------|
A----6--------9----9----------11-------7--------7------11---------------------13--|
E--4--------7--------7------9-----------------------------------------------------|

E--------------------------------------------------------------------------------|
B-----------------------------------------------------------------------14-------|
G------------------------------------------11-----------------15-----11----11----|
D-------8-------11----------------13-----9----9-----------13-------9-------------|
A----6--------9----9----------11-------7--------7------11---------------------13-|
E--4--------7--------7------9----------------------------------------------------|

E----------------------------------------------------------------------------|
B----------------------------------------------------------------------------|
G--------13-----11(12)(11)------------------------8(9)(8)--------------------|
D----11--------------------11--------------9--------------9------------------|
A--9--------------------------11--------7-------------------9----------------|
E------------9------------------------5-------7------------------------------|

E-----------------------------------------------------------|
B-----------------------------------------------------------|
G-------------5(6)(5)----------------------3(4)(3)----------|
D-------6-------------6-------------4--------------4--------|
A----4------------------6--------2-------------------4------|
E--2-------4-------------------0--------2-------------------|

E------------------------------------------------|
B------------------------------------------------|
G----------------12(13)(12)----------------------|
D--------13-----------------13-------------------|
A----11------------------------13--11------------|
E--9---------11----------------------------------|

Oook thats the intro,

 Riff:

E----------------------------------11--------------------------------------------------------|
B---------14-----------------14-14-----14----------------12-11-----------------12-11---------|
G------11-----11-11-----------------------13--------------------13---------------------------|
D--11---------------11-----------------------14----14-13-----------13-------13--------13-----|
A-------------------------11---------------------------------------------11--------------13--|
E--------------------------------------------------------------------------------------------|

E-------------------------------11---------|
B---------14-----------------14-----14-----|
G------11-----11----------13---------------|
D--11------------11--------------------6---|
A----------------------11------------------|
E------------------------------------------|

Riff Finishes
-----------------------------------------------

E-------------------------------------------------------------------------------------------|
B--------------------------------------------------------------------------------5---4------|
G--------4------------8-6-8--8------8/11-11----/13-13\8-8--8----8---4-4-6----------6-----6--|
D-----6-------6p4-6-----------------------------------------------6-------6----6------------|
A--6----------------------------------------------------------------------------------------|
E--4----------------------------------------------------------------------------------------|

E---------4------------------------------------------------------------------------------------|
B---------4-------------------------------------------------------------------------------4-4--|
G---------4------------8p6-8---13(16)(13)-13--------11--9-\8-8-----8---4-4-6-----------6-------|
D------6-------6p4-6----------------------------13-------------------6-------6------6----------|
A----6-----------------------------------------------------------------------------------------|
E--4----------------------------------------------------------------------------0--------------|

E---------------------------------------------------------------------------------------|
B---------------------------------------------------------------------------------------|
G---------3-4-------3---------------------------------------3-4-------3-----------------|
D-------4--------4--------4--4--4/6-6---9-8-6-------------4--------4--------4--4--4/6-6-|
A---------------------------------------------7/9-7-6-----------------------------2/4-4-|
E--0--2-------------------------------------------------2-------------------------------|

E--4--4--4---4----------------|
B--4--4--4---4----------------|
G--6--6--6---6-6\-------------|
D--6--6--6---6-6\-------------|
A--4--4--4---4-4\-------------|
E-----------------------------|

E------------7---9-----9h11---11---9--7---------------7---9-----9h11---9----|
B--9---7--9--7---9-----9-------9---9--7--9--9---7--9--7---9-----9------9----|
G--8---6--8------------------------------8--8---6--8------------------------|
D---------------------------------------------------------------------------|
A---------------------------------------------------------------------------|
E-------------------0----------------------------------------0--------------|

E------------7---9-----9h11---11---9--7--------x----7--7--6---6-6-6----14--14--13---13-13-----|
G--9---7--9--7---9-----9-------9---9--7--9--9--x----7--7--7---7-7-7----14--14--14---14-14-----|
B--8---6--8------------------------------8--8-------6--6--6---6-6-6----13--13--13---13-13-13--|
D---------------------------------------------------------------------------------------------|
A---------------------------------------------------------------------------------------------|
E---------------------------------------------------------------------------------------------|

E---------------7-7-7-7-9--x-x--9h11-11-11-11-11-9----7-7----x-x----|
B--9--9-9-7--9--7-7-7-7-9--x-x--9-----9--9--9--9-9----7-7-9--x-x----|
G--8--8-8-6--8--------------------------------------------8---------|
D-------------------------------------------------------------------|
A-------------------------------------------------------------------|
E-------------------------------------------------------------------|

E---------------7-7-7-7-9--x-x--9h11-11-11-11-11-14-14-14-14-14-14-14\--x-x-|
B--9--9-9-7--9--7-7-7-7-9--x-x--9-----9--9--9--9-12-12-12-12-12-12-12\--x-x-|
G--8--8-8-6--8--------------------------------------------------------------|
D---------------------------------------------------------------------------|
A---------------------------------------------------------------------------|
E---------------------------------------------------------------------------|

E---------------7-7-7-7-9--x-x--9h11-11-11-11-11-9----7-7----x-x----|
B--9--9-9-7--9--7-7-7-7-9--x-x--9-----9--9--9--9-9----7-7-9--x-x----|
G--8--8-8-6--8--------------------------------------------8---------|
D-------------------------------------------------------------------|
A-------------------------------------------------------------------|
E-------------------------------------------------------------------|

E--7--7--6---x-x----14--14--13---x-x-----------------16--16--20-x----------------|
B--7--7--7---x-x----14--14--14---x-x-----14----13----16--16-----x----------------|
G--6--6--6---x-x----13--13--13---x-x-----13----13----13--13-----x----------------|
D----------------------------------------13----13-------------------11-10--------|
A-------------------------------------------------------------------------11--11-|
E--------------------------------------------------------------------------------|


Cheers
Tap to rate this tab
# A B C D E F G H I J K L M N O P Q R S T U V W X Y Z