Song name
# A B C D E F G H I J K L M N O P Q R S T U V W X Y Z

Joe Satriani - I Just Wanna Rock tab

         I Just Wanna Rock - Joe Satriani
Professor Satchafunkilus and the Musterion of Rock

This is satch's new single. You can listen to a preview on the official Joe Satriani website.
 _____________________________________________________
|                                                     |
| \\  = slide right down                              |
| ^   = whammy bar use (its position shows the pitch) |
| <   = volume increase                               |
| ~   = vibrato                                       |
| b   = bend                                          |
| r   = release bend                                  |
| xby = bend from x to y                              |
| yrx = release bend from y to x                      |
|_____________________________________________________|

E |-------------------------------------|
B |-----------------3-------------------|
G |--2--2--2--2-5-2-2-2-5--2--2--2---0--|
D |--2--2--2--2-5-2---2-5--2--2--2---0--|
A |--0--0--0---------------0--0--0------|
E |-------------------------------------|
  What is your purpose?

E |-------------------------------------|
B |-----------------3-------------------|
G |--2--2--2--2-5-2-2-2-5--2--2--2--<5~-|
D |--2--2--2--2-5-2---2-5--2--2--2--<5~-|
A |--0--0--0---------------0--0--0------|
E |-------------------------------------|
  What is your purpose?

E |----------------------------------------|
B |-----------------3----------------------|
G |--2--2--2--2-5-2-2-2-5--2--2--2--9\\-0--|
D |--2--2--2--2-5-2---2-5--2--2--2--9\\-0--|
A |--0--0--0---------------0--0--0---------|
E |----------------------------------------|
  What is your purpose?

E |----------------------------------------------|
B |-----------------3----------------------------|
G |--2--2--2--2-5-2-2-2-5--2--2----0-2--9-^-^-^--|
D |--2--2--2--2-5-2---2-5--2--2--2-0-2---^-^-^---|
A |--0--0--0---------------0--0--2---0-----------|
E |----------------------------------------------|
  What is your purpose?

E |-------------------------------------|
B |-----------------3-------------------|
G |--2--2--2--2-5-2-2-2-5--2--2--2---0--|
D |--2--2--2--2-5-2---2-5--2--2--2---0--|
A |--0--0--0---------------0--0--0------|
E |-------------------------------------|
  What is your purpose? I just wanna rock!

E |-------------------------------------|
B |-----------------3-------------------|
G |--2--2--2--2-5-2-2-2-5--2--2--2------|
D |--2--2--2--2-5-2---2-5--2--2--2------|
A |--0--0--0---------------0--0--0------|
E |-------------------------------------|
  What is your purpose? I just wanna rock!

E |----------------------------------------|
B |-----------------3----------------------|
G |--2--2--2--2-5-2-2-2-5--2--2--2--9\\-0--|
D |--2--2--2--2-5-2---2-5--2--2--2--9\\-0--|
A |--0--0--0---------------0--0--0---------|
E |----------------------------------------|
  What is your purpose? I just wanna rock!

E |----------------------------------------------|
B |-----------------3----------------------------|
G |--2--2--2--2-5-2-2-2-5--2--2----0-2--9-^-^-^--|
D |--2--2--2--2-5-2---2-5--2--2--2-0-2---^-^-^---|
A |--0--0--0---------------0--0--2---0-----------|
E |----------------------------------------------|
  What is your purpose? I just wanna rock!

   With talkbox:
E |----------------------------------------------------------------------------|
B |----------------------------------------------------------------------------|
G |--------5-------5-------5-7-5-7b9-5----------5-------5-------5-7-5-7b9-5----|
D |--5-7-5---5-7-5---5-7-5-------------7--5-7-5---5-7-5---5-7-5-------------7--|
A |----------------------------------------------------------------------------|
E |----------------------------------------------------------------------------|

E |------------------5-------------------------------------5------------------|
B |--------------------8-5-------5---------------------------8-5-------5------|
G |--------5-------5-------7-5-7---5----------5-7b9r7-5----------7-5-7---5----|
D |--5-7-5---5-7-5-------------------7--5-7-5-----------7------------------7--|
A |---------------------------------------------------------------------------|
E |---------------------------------------------------------------------------|
Tap to rate this tab
# A B C D E F G H I J K L M N O P Q R S T U V W X Y Z