Song name
# A B C D E F G H I J K L M N O P Q R S T U V W X Y Z

Joe Satriani - Asik Veysel tab

Hey, I'd like to do the whole song, but thats way beyond me. I love the intro, so i 
that up. I tried putting it in power tab, but i couldn't get the timing on there for a 
bit. Here it goes, please rate and email me with edits: sircoolguy99@gmail.com.

Tap the 12th frets, pull of and hammer on the rest.

Standard Tuning:

Section 1 (play twice)

12-0-7-9-10-12-0-5-0-12-0-10-0-12-0-9-0-12-0-7---------------------------------|
-------------------------------------------------------------------------------|
-------------------------------------------------------------------------------|
-------------------------------------------------------------------------------|
-------------------------------------------------------------------------------|
-------------------------------------------------------------------------------|


12-0-7-9-10-12-0-5-0-12-0-7-0-12-0-3-0-0-0-------------------------------------|
-------------------------------------------------------------------------------|
-------------------------------------------------------------------------------|
-------------------------------------------------------------------------------|
-------------------------------------------------------------------------------|
-------------------------------------------------------------------------------|

12-0-7-9-10-12-0-5-0-12-0-10-0-12-0-9-0-12-0-5---------------------------------|
-------------------------------------------------------------------------------|
-------------------------------------------------------------------------------|
-------------------------------------------------------------------------------|
-------------------------------------------------------------------------------|
-------------------------------------------------------------------------------|

12-0-7-9-10-12-0-5-0-12-0-7-0-12-0-3-0-0-0-------------------------------------|
-------------------------------------------------------------------------------|
-------------------------------------------------------------------------------|
-------------------------------------------------------------------------------|
-------------------------------------------------------------------------------|
-------------------------------------------------------------------------------|


Section 2:
-------------------------------------------------------------------------------|
12-0-7-9-10-12-0-5-0-12-0-10-0-12-0-9-0-12-0-7---------------------------------|
-------------------------------------------------------------------------------|
-------------------------------------------------------------------------------|
-------------------------------------------------------------------------------|
-------------------------------------------------------------------------------|

-------------------------------------------------------------------------------|
12-0-7-9-10-12-0-5-0-12-0-7-0-12-0-3-0-0-0-------------------------------------|
-------------------------------------------------------------------------------|
-------------------------------------------------------------------------------|
-------------------------------------------------------------------------------|
-------------------------------------------------------------------------------|

-------------------------------------------------------------------------------|
12-0-7-9-10-12-0-5-0-12-0-10-0-12-0-9-0-12-0-5---------------------------------|
-------------------------------------------------------------------------------|
-------------------------------------------------------------------------------|
-------------------------------------------------------------------------------|
-------------------------------------------------------------------------------|

-------------------------------------------------------------------------------|
12-0-7-9-10-12-0-5-0-12-0-7-0-12-0-3-0-0-0-------------------------------------|
-------------------------------------------------------------------------------|
-------------------------------------------------------------------------------|
-------------------------------------------------------------------------------|
-------------------------------------------------------------------------------|

Section 3:

-------------------------------------------------------------------------------|
-------------------------------------------------------------------------------|
12-0-7-9-10-12-0-5-0-12-0-10-0-12-0-9-0-12-0-7---------------------------------|
-------------------------------------------------------------------------------|
-------------------------------------------------------------------------------|
-------------------------------------------------------------------------------|

-------------------------------------------------------------------------------|
-------------------------------------------------------------------------------|
12-0-7-9-10-12-0-5-0-12-0-7-0-12-0-3-0-0-0-------------------------------------|
-------------------------------------------------------------------------------|
-------------------------------------------------------------------------------|
-------------------------------------------------------------------------------|

-------------------------------------------------------------------------------|
-------------------------------------------------------------------------------|
-------------------------------------------------------------------------------|
12-0-7-9-10-12-0-5-0-12-0-10-0-12-0-9-0-12-0-5---------------------------------|
-------------------------------------------------------------------------------|
-------------------------------------------------------------------------------|

-------------------------------------------------------------------------------|
-------------------------------------------------------------------------------|
-------------------------------------------------------------------------------|
12-0-7-9-10-12-0-5-0-12-0-7-0-12-0-3-0-0-0-------------------------------------|
-------------------------------------------------------------------------------|
-------------------------------------------------------------------------------|
Tap to rate this tab
# A B C D E F G H I J K L M N O P Q R S T U V W X Y Z