Guitaretab - guitar tabs
Song name
# A B C D E F G H I J K L M N O P Q R S T U V W X Y Z

Joe Satriani - Profesor Satchafunkilus tab

Artist: Joe Satrani
Song: Profesor Satchafunkilus
Album: Professor Satchafunkilus And the Musterion Of Rock
Relaease Date April The Second 2007


This Is How I Play The Song 


May Not Be 100% But It Sounds Correct To Me


|---------------------------------------------------------------|
|-----12-14-14-14-14p12p10-12~-10~-7-10-10-10-12~-10~-----------|
|---------------------------------------------------------------|
|---------------------------------------------------------------|
|---------------------------------------------------------------|
|---------------------------------------------------------------|

|---------------------------------------------------------------|
|----------------8-----------106hb-----------------------------|
|------------7-9--------7-9----------7--------------------------|
|------5-5/9--------5/9-----------------------------------------|
|---------------------------------------------------------------|
|---------------------------------------------------------------|
[ Tab from: http://www.guitaretab.com/j/joe-satriani/107273.html ]
|---------------------------------------------------------------|
|----------------8-----------106hb------12b14------------------|
|------------7-9--------7-9----------7--------------------------|
|------5-5/9--------5/9-----------------------------------------|
|---------------------------------------------------------------|
|---------------------------------------------------------------|

|---------------------------------------------------------------|
|----------------8-----------106hb------12b14-14-14-14-12-10p8-|
|-----------7-9--------7-9----------7---------------------------|
|-----5-5/9--------5/9------------------------------------------|
|---------------------------------------------------------------|
|---------------------------------------------------------------|

|---------------------------------------------------------------|
|-----12-14-14-14-14p12p10-12~-10~-7-10-10-10-12~-10~-----------|
|---------------------------------------------------------------|
|---------------------------------------------------------------|
|---------------------------------------------------------------|
|---------------------------------------------------------------|



Thats all I can figure out as the rest is pretty Quiet

Related for Profesor Satchafunkilus tab