Song name
# A B C D E F G H I J K L M N O P Q R S T U V W X Y Z

Joe Satriani - Journey tab

This song is awesome and wanted to tab this shoot out.

15(17)=full bend
15(16)=half bend

------12-----12-----12----------12-----------------------------|
---15(17)-15(17)-15(17)-15(17)~~--15-12------------------------|
----------------------------------------14(16)-14p12--12-15~~~-|
----------------------------------------------------14---------|
---------------------------------------------------------------|
---------------------------------------------------------------|

-----12---15(17)~-15(16)-12--12-15-12~-12---------------------|
--15(17)12-----------------12------------15-------------------|
--------------------------------------------14(16)-12---------|
-----------------------------------------------------14-------|
-------------------------------------------------------13~~---|
--------------------------------------------------------------|

----------------------------------------------------------12---------|
--------------------------------------------------------12--15(17)~~-|
---------------------------------------------12--14(16)~-------------|
---------------------------------------12--14--14--------------------|
--/12-10(1/4)-12-10(11)-12-10(11)-12/14--14--------------------------|
---------------------------------------------------------------------|
Tap to rate this tab
# A B C D E F G H I J K L M N O P Q R S T U V W X Y Z