Song name
# A B C D E F G H I J K L M N O P Q R S T U V W X Y Z

Joe Satriani - Sleep Walk tab

-------------------------------------------------------------------------------
			     Sleep Walk - Joe Satriani
-------------------------------------------------------------------------------
Tabbed by:
Email:

Tuning: Standard

Note: Listen to the song for the changes!

Guitar 1.
e|---------------------------------------------------------------------------|
B|---------------------------------------------------------------------------|
G|---------------------------------------------------------------------------|
D|--------14\12/14\12/10----12/14\12\10\9\5---5/7/9/10-----------------------|
A|---------------------------------------------------------------------------|
E|--12(+)--------------------------------------------------------------------|

Guitar 2.
e|---------------------------------------------------------------------------|
B|--12-10\8------------------------------------------------------------------|
G|----------9\7\5\4------5---------------------------------------------------|
D|---------------------------------------------------------------------------|
A|-------------------7---7---------------------------------------------------|
E|---------------------------------------------------------------------------|
Tap to rate this tab
 
# A B C D E F G H I J K L M N O P Q R S T U V W X Y Z