Song name
# A B C D E F G H I J K L M N O P Q R S T U V W X Y Z

Joe Satriani - Ghosts Live tab

-------------------------------------------------------------------------------
			     Ghosts (Live) - Joe Satriani
-------------------------------------------------------------------------------
Tabbed by: Will Long
Email: wlong3000@yahoo.com

Tuning:

e|---------------------------------------------------------------------------|
B|---------------------------------------------------------------------------|
G|--7-7-7---6-6-6---3-3-3----------7-7-7---6-6-6---3-3-3------x-\------------|
D|--7-7-7---6-6-6---3-3-3----------7-7-7---6-6-6---3-3-3------x-\------------|
A|--5-5-5---4-4-4---1-1-1---0-0-0--5-5-5---4-4-4---1-1-1------x-\------------|
E|---------------------------------------------------------------------------|
  [ 3 Times ]       [                  2 Times                        ]
e|---------------------------------------------------------------------------|
B|---------------------------------------------------------------------------|
G|---------------------------------------------------------------------------|
D|----2-0-2------2---8-9----------8-9---------8-9----------------------------|
A|--1----------1----------11-10-------11-10--------11-10---7--8--7--7--------|
E|-0---------0---------------------------------------------------------------|

e|---------------------------------------------------------------------------|
B|---------------------------------------------------------------------------|
G|--------------------------------8-9--------8-9-----------------------------|
D|-------------------------------------11-10------11-10----8-9---------------|
A|---9-10----------9-10-----------------------------------------11-10--------|
E|--------12-11-8-------12-11-8----------------------------------------------|

e|---------------------------------------------------------------------------|
B|---------------------------------------------------------------------------|
G|--------------------------------------7-7-7---6-6-6---3-3-3----------------|
D|-8-9--------8-9-----------------------7-7-7---6-6-6---3-3-3----------------|
A|-----11-10------11-10---7-8-7-7-------5-5-5---4-4-4---1-1-1----------------|
E|---------------------------------------------------------------------------|



************************************

| /   slide up
| \   slide down
| h   hammer-on
| p   pull-off
| ~   vibrato
| +   harmonic
| x   Mute note
| b   Bend
| pb  Pre-bend
| br  Bend release
| pbr Pre-bend release
| brb Bend release bend

************************************
Tap to rate this tab
# A B C D E F G H I J K L M N O P Q R S T U V W X Y Z