Song name
# A B C D E F G H I J K L M N O P Q R S T U V W X Y Z

Joe Satriani - Solitude tab

-------------------------------------------------------------------------------
			     Solitude - Joe Satriani
-------------------------------------------------------------------------------
Tabbed by:Cedar radeC
Email:Clar8021@Gmail.com

Tuning:Standard

A song from Black Swans And Wormhole Wizards. Uses some Reverb.

e|---------------------------------------------------------------------------|
B|---------------------------------------------------------------------------|
G|------------15---15-------------11-----11----------------------------------|
D|------------13---13--------------9------9------13----13--------------------|
A|-----------------------------------------------11----11--------------------|
E|---------------------------------------------------------------------------|

e|---------------------------------------------------------------------------|
B|---------------------------------------------------------------------------|
G|---------------------------------------------------------------------------|
D|------------13----13------9--9-------11-----11-----------------------------|
A|------------11----11------6--6--------9------9-----------------------------|
E|---------------------------------------------------------------------------|

e|---------------------------------------------------------------------------|
B|---------------------------------------------------------------------------|
G|-------------15-------15---------11----11----------------------------------|
D|-------------13-------13----------9-----9-----13----13---------9----9------|
A|----------------------------------------------11----11---------6----6------|
E|---------------------------------------------------------------------------|

e|---------------------------------------------------------------------------|
B|---------------------------------------------------------------------------|
G|----4----4-----6----6-----8---8-----11---11--------------------------------|
D|----2----2-----4----4-----6---6------9----9--------------------------------|
A|---------------------------------------------------------------------------|
E|---------------------------------------------------------------------------|

e|---------------------------------------------------------------------------|
B|---------------------------------------------------------------------------|
G|---4----4-----6----6-----8----8--------------------------------------------|
D|---2----2-----4----4-----6----6--------------------------------------------|
A|---------------------------------------------------------------------------|
E|---------------------------------------------------------------------------|

e|---------------------------------------------------------------------------|
B|---------------------------------------------------------------------------|
G|----15-----15-----11-----11------------------------------------------------|
D|----13-----13------9------9------13-----13---------------------------------|
A|---------------------------------11-----11---------------------------------|
E|---------------------------------------------------------------------------|

e|---------------------------------------------------------------------------|
B|---------------------------------------------------------------------------|
G|---------------------------------------------------------------------------|
D|--13----13----------11----11-----------9----9------------------------------|
A|--11----11-----------9-----9-----------6----6------------------------------|
E|---------------------------------------------------------------------------|

e|-------------------------------------------------------------------------------|
B|-------------------------------------------------------------------------------|
G|-------------------------------------------------------------------------------|
D|--13---13----------11-----11-----------9---9-----------------------------------|
A|--11---11-----------9------9-----------6---6-----------------------------------|
E|-------------------------------------------------------------------------------|


************************************

| /   slide up
| \   slide down
| h   hammer-on
| p   pull-off
| ~   vibrato
| +   harmonic
| x   Mute note
| b   Bend
| pb  Pre-bend
| br  Bend release
| pbr Pre-bend release
| brb Bend release bend

************************************
Tap to rate this tab
 
# A B C D E F G H I J K L M N O P Q R S T U V W X Y Z