Song name
# A B C D E F G H I J K L M N O P Q R S T U V W X Y Z

Joe Satriani - Heartbeats tab

I suggest you listen to the original recording to get the timing right :)
I've not done with the solo yet, bet here are the main melody:

E |------------------------|------------------------|
B |------------------------|------------------------|
G |---------6---8~~~~~~~~~~|------8---9---6---------|
D |-----9------------------|------------------------|
A |------------------------|------------------------|
E |------------------------|------------------------|


E |------------------------|------------------------|
B |------------------------|------------------------|
G |-----3---4---6----------|----6---8---4-----------|
D |------------------------|------------------------|
A |------------------------|------------------------|
E |------------------------|------------------------|


E |------------------------|------------------------|
B |-----------------9------|------------------------|
G |-----4---6---8----------|----8---9---6-----------|
D |------------------------|------------------------|
A |------------------------|------------------------|
E |------------------------|------------------------|


E |------------------------|------------------------|
B |------------------------|------------------------|
G |-----3---4---6----------|----6---8---4-----------|
D |------------------------|-------------------6\4/6|
A |------------------------|------------------------|
E |------------------------|------------------------|


                              Hold it, then bend a half step, before you quickly release the bend
E |------------------------|------------------------|
B |------------------------|---11br---9-------------|
G |------------8/13---11---|------------------------|
D |------------------------|------------------------|
A |------------------------|------------------------|
E |------------------------|------------------------|

                              ph
E |------------------------|------------------------|
B |------------------------|------------------------|
G |---8-/-13-\-8-/-11------|---8--6--8/11--8\6/8----|
D |------------------------|------------------------|
A |------------------------|------------------------|
E |------------------------|------------------------|

E |------------------------|------------------------|
B |------------------------|---11br---9-------------|
G |------------8/13---11---|-------------------8----|
D |------------------------|------------------------|
A |------------------------|------------------------|
E |------------------------|------------------------|

Both bend is 16/18\16
E |-16-14------------------|------------------------|
B |------16br-14\12-16br-14|------------------------|
G |------------------------|------------------------|
D |------------------------|------------------------|
A |------------------------|------------------------|
E |------------------------|------------------------|
Tap to rate this tab
 
# A B C D E F G H I J K L M N O P Q R S T U V W X Y Z