Song name
# A B C D E F G H I J K L M N O P Q R S T U V W X Y Z

Joe Satriani - Devils Slide tab

-------------------------------------------------------------------------------
			     DEVILS SLIDE - Joe Satriani
-------------------------------------------------------------------------------
Tabbed by:Drew Barnicoat
Email:    ledzeppelinaresweet@hotmail.com

Tuning: E-A-D-G-B-E

| /  slide up
| \  slide down
| h  hammer-on
| p  pull-off
| >  bend  
| +  harmonic
| x  Mute note

Intro x4
e|-5--6---5--3---5--6---5--3-------------------------------------------------|
B|-3--4---3--1---3--4---3--1-------------------------------------------------|
G|---------------------------------------------------------------------------|
D|---------------------------------------------------------------------------|
A|---------------------------------------------------------------------------|
E|---------------------------------------------------------------------------|

e|---------------------------------------------------------------------------|
B|------------10-------------------------------------------------------------|
G|---------10----12--12-10-8-7h8p7-5/7-(-7-7-7)-optional---------------------|
D|---10-12-------------------------------------------------------------------|
A|---------------------------------------------------------------------------|
E|---------------------------------------------------------------------------|

e|---------------------------------------------------------------------------|
B|------------10------10h11p10----10----10-10h11p10----10----10-----10-11////|
G|---------10----12------------12----12-------------12----12-----------------|
D|---10-12-------------------------------------------------------------------|
A|---------------------------------------------------------------------------|
E|---------------------------------------------------------------------------|

e|---------------------------------------------------------------------------|
B|/15-15---11-10----10-11///15--10h11----------------------------------------|
G|---------------12----------------------------------------------------------|
D|---------------------------------------------------------------------------|
A|---------------------------------------------------------------------------|
E|---------------------------------------------------------------------------|

e|---------------------------------------------------------------------------|
B|------------10-------------------------------------------------------------|
G|---------10----12--12-10-8-7h8p7-5>7-(-7-7-7)-optional---------------------|
D|---10-12-------------------------------------------------------------------|
D|---------------------------------------------------------------------------|
A|---------------------------------------------------------------------------|
E|---------------------------------------------------------------------------|

each of these numbers are seperate numbers not 55s or so on
e|---------------------------------------------------------------------------|
B|----------------------------------------these are 10s not 1 and 0---------|
G|---------------------------------------------------------------------------|
D|--------------------------------5777775777775--91010101010910101010109-----|
A|--3555553555553---7888887888887--------------------------------------------|
E|---------------------------------------------------------------------------|

e|---------------------------------------------------------------------------|
B|--------------------these are elevands and twelves------------------------|
G|--7999997999997---111212121212121112121212121211---------------------------|
D|---------------------------------------------------------------------------|
A|---------------------------------------------------------------------------|
E|---------------------------------------------------------------------------|

e|---these are 10s and 12s--------------------------------------------------|
B|-----------10121212121210121212121210-------141515151551451515151514-------|
G|---------------------------------------------------------------------------|
D|---------------------------------------------------------------------------|
A|---------------------------------------------------------------------------|
E|---------------------------------------------------------------------------|

Amazing solo here that would take a lifetime to figure out!!!

===============================================================================
Tap to rate this tab
# A B C D E F G H I J K L M N O P Q R S T U V W X Y Z