Song name
# A B C D E F G H I J K L M N O P Q R S T U V W X Y Z

Joe Satriani - The Forgotten Part 1 tab

The Forgotten, part I" from "Flyin' in a Blue 
Dream" by Joe SATRIANI, or more precisely my transcription.



 |> - - - - - - - - - - pattern A - - - - X 4 - - - - - - - - - - - - - - -  <|

  Rythm 1
    >     >     >        >     >         with rythm 1...
 |-------------------------------------|-------     |-------     |-------     |
4|-------------------------------------|-------     |-------     |-------     |
-|-12----12----12-------12----12-------|-13---- ... |-12---- ... |-10---- ... |
4|-10----10----10-------10----10-------|-------     |-------     |-------     |
 |----15----15----15-15----15----15-15-|-13-15-     |-11-15-     |-10-15-     |
 |-------------------------------------|-------     |-------     |-------     |




|> pattern B - X 4 <||> - pattern C - X 3 - - <|

|-------             |-------     |-------     |
|-------             |-------     |-------     |
|-------  ...        |--5---- ... |--7---- ... |
|-10----             |----13-     |----13-     |
|----15-             |----15-     |----15-     |
|--8----             |--4----     |--6----     |




|> pattern B - X 2 <||> pattern A - X 2 <|




  Rythm 2
    >     >        >     >     >     >        with rythm 2...
 |-------------------------------------------|-------   |-------   |-------   |
7|-------------------------------------------|-------   |-------   |-------   |
-|-12----12-------12----12----12----12-------|-13----...|-12----...|-10----...|
8|-10----10-------10----10----10----10-------|-------   |-------   |-------   |
 |----15----15-15----15----15----15----15-15-|-13-15-   |-11-15-   |-10-15-   |
 |-------------------------------------------|-------   |-------   |-------   |




|> pattern A <||> pattern B - X 4 <|

with rythm 1...
                                   |-------------
                                   |-------------
                                   |-------------
                                   |-------------
                                   |-------------
                                   |--8----------



Tap to rate this tab
# A B C D E F G H I J K L M N O P Q R S T U V W X Y Z