Joe Satriani - Midnight tab

Most of this song is repeating, so it's pretty easy to remember.
Note: This entire song DOES NOT use a pick. I was a little lazy and didn't add the 
finger stuff. However, if you watch this YouTube link ( 
http://www.youtube.com/watch?v=0EsXxXY5lkE ) you should be able to get the finger stuff.

e|-------------------------------------------------------------|
B|---------12------------12----------------12------------12----|
G|-------------------------------------------------------------|
D|------------12-------------12---------------12------------12-|
A|------9------------9-----------------9--------------9--------|
E|---7------------7-----------------7--------------7-----------|

e|----------------------------------------------------------------|
B|----------14--------------14--------------14------------14------|
G|----------------------------------------------------------------|
D|------10-----14-------10-----14-------10-----14------10-----14--|
A|---9---------------9---------------9--------------9-------------|
E|----------------------------------------------------------------|

e|-------------------------------------------------------------|
B|---------12------------12----------------12------------12----|
G|-------------------------------------------------------------|
D|------------12-------------12---------------12------------12-|
A|------9------------9-----------------9--------------9--------|
E|---7------------7-----------------7--------------7-----------|

e|------------------------------------------14------------14------|
B|----------14--------------14------------------------------------|
G|---------------------------------------------14-------------14--|
D|------10-----14-------10-----14-------10-------------10---------|
A|---9---------------9---------------9--------------9-------------|
E|----------------------------------------------------------------|

e|-------------------------------------------------------------|
B|---------12------------12----------------12------------12----|
G|-------------------------------------------------------------|
D|------------12-------------12---------------12------------12-|
A|------9------------9-----------------9--------------9--------|
E|---7------------7-----------------7--------------7-----------|

e|---------12------------12----------------12---------------12-----|
B|-----------------------------------------------------------------|
G|-------------12------------12-----------------12-------------12--|
D|-------9------------9------------------9---------------9---------|
A|---7------------7-----------------7--------------7---------------|
E|-----------------------------------------------------------------|

e|---------------------------------------------------|
B|-------12----------12-----------12----------12-----|
G|----9-----------9------------9-----------9---------|
D|----------12-----------12----------12----------12--|
A|--9-----------9------------9-----------9-----------|
E|---------------------------------------------------|

e|------------------------------------------|
B|-------11----------11-----------11--------|
G|----9-----------9------------9------------|
D|----------11-----------11----------11-----|
A|--9-----------9------------9-----------9~-|
E|------------------------------------------|

e|-------------------------------------------------------------|
B|---------12------------12----------------12------------12----|
G|-------------------------------------------------------------|
D|------------12-------------12---------------12------------12-|
A|------9------------9-----------------9--------------9--------|
E|---7------------7-----------------7--------------7-----------|

e|----------------------------------------------------------------|
B|----------14--------------14--------------14------------14------|
G|----------------------------------------------------------------|
D|------10-----14-------10-----14-------10-----14------10-----14--|
A|---9---------------9---------------9--------------9-------------|
E|----------------------------------------------------------------|

e|-------------------------------------------------------------|
B|---------12------------12----------------12------------12----|
G|-------------------------------------------------------------|
D|------------12-------------12---------------12------------12-|
A|------9------------9-----------------9--------------9--------|
E|---7------------7-----------------7--------------7-----------|

e|-------14------------14-----------12----------12------|
B|------------------------------------------------------|
G|-----------14-----------14-----------12----------12---|
D|----10-----------10-----------10-----------10---------|
A|--9------------9------------9------------9------------|
E|------------------------------------------------------|

e|---------------------------------------------------|
B|-------12----------12-----------12----------12-----|
G|----9-----------9------------9-----------9---------|
D|----------12-----------12----------12----------12--|
A|--9-----------9------------9-----------9-----------|
E|---------------------------------------------------|

e|------------------------------------------|
B|-------11----------11-----------11--------|
G|----9-----------9------------9------------|
D|----------11-----------11----------11-----|
A|--9-----------9------------9-----------9~-|
E|------------------------------------------|

Start clapping rhythm
(The left hand chords are mostly octaves apart if it makes this part any easier)

e|-----------|-------------------------------------------------------|
B|-----17----|----17-----17--------17--------17-----17--------17-----|
G|-----------|-------------------------------------------------------|
D|--9--17--9-|----17--9--17-----9--17--9-----17--9--17-----9--17--9--|
A|-----------|-------------------------------------------------------|
E|--7------7-|--------7---------7------7---------7---------7------7--|

e|------------------------------------------------------|
B|---16-----16--------16--------16-----16--------16-----|
G|------------------------------------------------------|
D|---16--9--16-----9--16--9-----16--9--16-----9--16--9--|
A|------------------------------------------------------|
E|-------7---------7------7---------7---------7------7--|

e|------------------------------------------------------|
B|---17-----17--------17--------17-----17--------17-----|
G|------------------------------------------------------|
D|---17--9--17-----9--17--9-----17--9--17-----9--17--9--|
A|------------------------------------------------------|
E|-------7---------7------7---------7---------7------7--|

e|------------------------------------------------------|
B|---16-----16--------16--------16-----16--------16-----|
G|------------------------------------------------------|
D|---16--9--16-----9--16--9-----16--9--16-----9--16--9--|
A|------------------------------------------------------|
E|-------7---------7------7---------7---------7------7--|

e|-------------|------------------------------------------------------------|
B|------20-----|----20------20---------20---------20------20---------20-----|
G|-------------|------------------------------------------------------------|
D|--12--20--12-|----20--12--20-----12--20--12-----20--12--20-----12--20--12-|
A|-------------|------------------------------------------------------------|
E|--10------10-|--------10---------10------10---------10---------10------10-|

e|------------------------------------------------------------|
B|---19------19---------19---------19------19---------19------|
G|------------------------------------------------------------|
D|---19--12--19-----12--19--12-----19--12--19-----12--19--12--|
A|------------------------------------------------------------|
E|-------10---------10------10---------10---------10------10--|

e|------------------------------------------------------------|
B|---20------20---------20---------20------20---------20------|
G|------------------------------------------------------------|
D|---20--12--20-----12--20--12-----20--12--20-----12--20--12--|
A|------------------------------------------------------------|
E|-------10---------10------10---------10---------10------10--|

e|------------------------------------------------------------|
B|---19------19---------19---------19------19---------19------|
G|------------------------------------------------------------|
D|---19--12--19-----12--19--12-----19--12--19-----12--19--12--|
A|------------------------------------------------------------|
E|-------10---------10------10---------10---------10------10--|

e|-----17----|----17----17-------17-------17----17--------17----|
B|-----------|--------------------------------------------------|
G|-----17----|----17----17-------17-------17----17--------17----|
D|--14----14-|-------14-------14----14-------14--------14----14-|
A|-----------|--------------------------------------------------|
E|--12----12-|-------12-------12----12-------12--------12----12-|

e|----15----15---------15---------15----15----------15----|
B|--------------------------------------------------------|
G|----16----16---------16---------16----16----------16----|
D|-------14---------14----14---------14---------14----14--|
A|--------------------------------------------------------|
E|-------12---------12----12---------12---------12----12--|

e|----17----17---------17---------17----17---------17-----|
B|--------------------------------------------------------|
G|----17----17---------17---------17----17---------17-----|
D|-------14---------14----14---------14---------14----14--|
A|--------------------------------------------------------|
E|-------12---------12----12---------12---------12----12--|

e|----15----15---------15---------15----15---------15-----|
B|--------------------------------------------------------|
G|----16----16---------16---------16----16---------16-----|
D|-------14---------14----14---------14---------14----14--|
A|--------------------------------------------------------|
E|-------12---------12----12---------12---------12----12--|

e|----20----|-20----20---------20---------20----20---------20-----|
B|----------|-----------------------------------------------------|
G|----20----|-20----20---------20---------20----20---------20-----|
D|-16----16-|----16---------16----16---------16---------16----16--|
A|----------|-----------------------------------------------------|
E|-14----14-|----14---------14----14---------14---------14----14--|

e|-20----20--------22---------22----22---------22---------19----19--|
B|------------------------------------------------------------------|
G|-20----20--------22---------22----22---------22---------19----19--|
D|----16--------16----16---------16---------16----16---------16-----|
A|------------------------------------------------------------------|
E|----14--------14----14---------14---------14----14---------14-----|

e|----19---------19----19---------19---------19----19---------19~--|
B|-----------------------------------------------------------------|
G|----19---------19----19---------19---------19----19---------19~--|
D|-16----16---------16---------16----16---------16---------16------|
A|-----------------------------------------------------------------|
E|-14----16---------14---------14----14---------14---------14------|

e|-------------------------------------------------------------------|
B|-12----12---------12---------12----12---------12---------12----12--|
G|----11---------11----11---------11---------11----11---------11-----|
D|-12----12---------12---------12----12---------12---------12----12--|
A|----10---------10----10---------10---------10----10---------10-----|
E|-------------------------------------------------------------------|

e|-------------------------------------------------------------------|
B|-14----14---------14---------14----14---------14---------14----14--|
G|----11---------11----11---------11---------11----11---------11-----|
D|-14----14---------14---------14----14---------14---------14----14--|
A|----10---------10----10---------10---------10----10---------10-----|
E|-------------------------------------------------------------------|

e|-------------------------------------------------------------------|
B|-15----15---------15---------15----15---------15---------15----15--|
G|----11---------11----11---------11---------11----11---------11-----|
D|-16----16---------16---------16----16---------16---------16----16--|
A|----10---------10----10---------10---------10----10---------10-----|
E|-------------------------------------------------------------------|

e|--------------------------------------------------------------------|
B|-17----17---------17---------17----17----------17---------17----17--|
G|----11---------11----11---------11----------11----11---------11-----|
D|-17----17---------17---------17----17----------17---------17----17--|
A|----10---------10----10---------10----------10----10---------10-----|
E|--------------------------------------------------------------------|

e|---------------------------------------------------------------|
B|-11---11---------11--------11---11---------11--------11---11---|
G|----9----------9----9---------9----------9----9---------9------|
D|-11---11---------11--------11---11---------11--------11---11---|
A|----9----------9----9---------9----------9----9---------9------|
E|---------------------------------------------------------------|

e|---------------------------------------------------------------|
B|-12---12---------12---------12---12---------12--------12---12--|
G|----9----------9----9----------9----------9----9---------9-----|
D|-12---12---------12---------12---12---------12--------12---12--|
A|---------------------------------------------------------------|
E|----8----------8----8----------8----------8----8---------8-----|

e|---------------------------------------------------------------|
B|-11---11---------11--------11---11---------11--------11---11---|
G|----9----------9----9---------9----------9----9---------9------|
D|-11---11---------11--------11---11---------11--------11---11---|
A|----9----------9----9---------9----------9----9---------9------|
E|---------------------------------------------------------------|

e|---------------------------------------------------------------|
B|-12---12---------12---------12---12---------12--------12---12--|
G|----9----------9----9----------9----------9----9---------9-----|
D|-12---12---------12---------12---12---------12--------12---12--|
A|---------------------------------------------------------------|
E|----8----------8----8----------8----------8----8---------8-----|

e|-------------------------------------------------------------------|
B|-12----12---------12---------12----12---------12---------12----12--|
G|----11---------11----11---------11---------11----11---------11-----|
D|-12----12---------12---------12----12---------12---------12----12--|
A|----10---------10----10---------10---------10----10---------10-----|
E|-------------------------------------------------------------------|

e|---------------------------------------------------------------|
B|-12---12---------12--------12---12---------12--------12---12---|
G|----9----------9----9---------9----------9----9---------9------|
D|-12---12---------12--------12---12---------12--------12---12---|
A|----9----------9----9---------9----------9----9---------9------|
E|---------------------------------------------------------------|

e|---------------------------------------------------------------|
B|-11---11---------11--------11---11---------11--------11---11---|
G|----9----------9----9---------9----------9----9---------9------|
D|-11---11---------11--------11---11---------11--------11---11---|
A|----9----------9----9---------9----------9----9---------9------|
E|---------------------------------------------------------------|

Chord Tapping end
This part speeds up every time through

e|-------------------------------------12----------------------|
B|-----12--------------14------------------------------11------|
G|----------------------------------------12-------9-----------|
D|--------12-------9--------14-------9---------------------11--|
A|---9-----------8---------------7--------------9--------------|
E|-7-----------------------------------------------------------|

e|---------------------------------------------------------|
B|------11------------12-------------14------------12------|
G|---9-------------7---------------------------------------|
D|---------11------------12-------9-----14-------------12--|
A|-9-------------7-------------8----------------9----------|
E|-------------------------------------------7-------------|

e|-------------------------------------12----------------------|
B|-----12--------------14------------------------------11------|
G|----------------------------------------12-------9-----------|
D|--------12-------9--------14-------9---------------------11--|
A|---9-----------8---------------7--------------9--------------|
E|-7-----------------------------------------------------------|

e|--------------------------------------------------------|
B|------11------------12-------------14------------12~----|
G|---9-------------7--------------------------------------|
D|---------11------------12-------9-----14----------------|
A|-9-------------7-------------8----------------9---------|
E|-------------------------------------------7------------|

e|-------------------------------------12----------------------|
B|-----12--------------14------------------------------11------|
G|----------------------------------------12-------9-----------|
D|--------12-------9--------14-------9---------------------11--|
A|---9-----------8---------------7--------------9--------------|
E|-7-----------------------------------------------------------|

e|---------------------------------------------------------|
B|------11------------12-------------14------------12------|
G|---9-------------7---------------------------------------|
D|---------11------------12-------9-----14-------------12--|
A|-9-------------7-------------8----------------9----------|
E|-------------------------------------------7-------------|

e|-------------------------------------12----------------------|
B|-----12--------------14------------------------------11------|
G|----------------------------------------12-------9-----------|
D|--------12-------9--------14-------9---------------------11--|
A|---9-----------8---------------7--------------9--------------|
E|-7-----------------------------------------------------------|

e|--------------------------------------------------------|
B|------11------------12-------------14------------12~----|
G|---9-------------7--------------------------------------|
D|---------11------------12-------9-----14----------------|
A|-9-------------7-------------8----------------9---------|
E|-------------------------------------------7------------|

e|-----12----------12----------12----------12-------|
B|--------------------------------------------------|
G|--------12----------12----------12------------12--|
D|--------------------------------------------------|
A|---8----------8-----------8------------8----------|
E|-7----------7-----------7------------7------------|

e|-----12----------12----------12----------12-------|
B|--------------------------------------------------|
G|--------12----------12----------12------------12--|
D|--------------------------------------------------|
A|---8----------8-----------8------------8----------|
E|-7----------7-----------7------------7------------|

e|-----11----------11----------11-----------11-----|
B|-------------------------------------------------|
G|--------11----------11----------11-----------11--|
D|-------------------------------------------------|
A|---9----------9-----------9------------9---------|
E|-7----------7-----------7------------7-----------|

e|-----11----------11----------11-----------11-----|
B|-------------------------------------------------|
G|--------11----------11----------11-----------11--|
D|-------------------------------------------------|
A|---9----------9-----------9------------9---------|
E|-7----------7-----------7------------7-----------|

e|-----12----------12----------12----------12-------|
B|--------------------------------------------------|
G|--------12----------12----------12------------12--|
D|--------------------------------------------------|
A|---8----------8-----------8------------8----------|
E|-7----------7-----------7------------7------------|

e|-----15----------15----------12-----------12-----|
B|-------------------------------------------------|
G|--------15----------15----------12-----------12--|
D|-------------------------------------------------|
A|---8----------8-----------8------------8---------|
E|-7----------7-----------7------------7-----------|


e|-----11----------11----------11-----------11----------11---------||
B|-----------------------------------------------------------------||
G|--------11----------11----------11-----------11----------11------||
D|-----------------------------------------------------------------||
A|---9----------9-----------9------------9------------9------------||
E|-7----------7-----------7------------7------------7-----------7--||
Tap to rate this tab
 
# A B C D E F G H I J K L M N O P Q R S T U V W X Y Z