Joe Satriani - Solitude tab

solitude
by joe satriani
this was a very intresting song to tab. it is a very beautiful song. if you have
any questions send me a message to my youtube account. my youtube channel is
youtube(.)com/wxxxe3xxxw. joe is my guitar idol. i may never get as good as him but he is amazing


-----------------------------------------------|
-----------------------------------------------|
-----------------------------------------------|
-16---16-----12---12-----9---9~~~~~~~----------|
-14---14-----10---10-----7---7~~~~~~~----------|
-0----0------8----8------5---5~~~~~~~----------|
-----------------------------------------------|

-------------------------------|
-------------------------------|
-------------------------------|
-9--9----5--5----7--7~~~~~~~---|
-7--7------------5--5~~~~~~~---|
-5--5----7--7----3--3~~~~~~~---|
---------5--5------------------|

---------------------------------------------|
---------------------------------------------|
---------------------------------------------|
-16---16-----12---12-----9---9----5--5~~~~~~-|
-14---14-----10---10-----7---7---------------|
-0----0------8----8------5---5----7--7~~~~~~-|
----------------------------------5--5~~~~~~-|

----------------------------------------|
----------------------------------------|
----------------------------------------|
-2--2----4--4-----5--5----9---9---------|
----------------------------------------|
-3--3----3--3-----7--7----10--10--------|
-1--1----5--5-----5--5----8---8---------|
Tap to rate this tab
 
# A B C D E F G H I J K L M N O P Q R S T U V W X Y Z