Song name
# A B C D E F G H I J K L M N O P Q R S T U V W X Y Z

Joe Satriani - Ill Put A Stone On Your Cairn tab

(/) Slide Up  (\) Slide Down  (h) Hammer On  (p) Pull Off  (b) Bend (r) Release (v) Vibrato

E|----------------------------------------------------------------------------------------|
B|----------------------------------------------------------------------------------------|
G|-------------------------------------------------/10s11--s13--s15p\13\11--s13\11s13\11--|
D|--------11--11--6v--------11/11--4/6--4/6-----------------------------------------------|
A|--9--9--------------9--9-------------------11b9-----------------------------------------|
E|----------------------------------------------------------------------------------------|

E|----------------------------------------------------------------------------------------|
B|----------------------------------------------------------------------------------------|
G|------------------------------------------11--11--13--13~-11h13--13s15~\13s11--11s13s11-|
D|----------11--11~-------11--------11--11------------------------------------------------|
A|--9--9------------9--9--11--9--9--------------------------------------------------------|
E|----------------------------------------------------------------------------------------|

E|-----------------------------------------------------------------------------------------|
B|-----------------------------------------------------------------------------------------|
G|--10--s11--6s8s6--6-------------------11s13s15s18~-15^p13~~~13^s11-----------------------|
D|---------------------6--6s8s6--9p8s9-----------------------------------------------------|
A|-----------------------------------------------------------------------------------------|
E|-----------------------------------------------------------------------------------------|

Made by : DaniŽl D. B.
Tap to rate this tab
# A B C D E F G H I J K L M N O P Q R S T U V W X Y Z