Song name
# A B C D E F G H I J K L M N O P Q R S T U V W X Y Z

Joe Satriani - Shine On American Dreamer tab

Joe Satriani
Shine on American Dreamer
Unstoppable Momentum


Intro
(Listen for timing)

E|-------------------------------|
B|--3-----3--3-3--3-----3--3--3--|
G|--2-----0--0-0--2-----0--0--0--|
D|--0-----0--0-0--0-----0--0--0--|
A|--------2--2-2--------2--2--2--|
E|--------3--3-3--------3--3--3--|

Intro Riff

E|--------------------------------------------------------|
B|--------------------------------------------------3-3---|
G|--9h11-9--------------4-4-4h5-4--2----------------0-0---|
D|--0----0--0-0-0-0-0-0-0-0-0---0--0--0-0-0-0-0-0---0-0---|
A|--------------------------------------------------2-2---|
E|--------------------------------------------------3-3---|
            pm=========               pm=========

E|--------------------------------------------------------|
B|-------------------------------------------------3-3----|
G|--9h11-12-------------4-4-4h5-4--2---------------0-0----|
D|--0----0--0-0-0-0-0-0-0-0-0---0--0-0-0-0-0-0-0---0-0----|
A|-------------------------------------------------2-2----|
E|-------------------------------------------------3-3----|
           pm==========              pm=========
Main Lead

E|---------------------------------------------------------|
B|---------------------------------------------------------|
G|--12/14--14-14--14-14-14/16--16-16-16/17--17-17-17/19-16-|
D|---------------------------------------------------------|
A|---------------------------------------------------------|
E|---------------------------------------------------------|

E|-----------------------------------|
B|-----------------------------------|
G|--16-16/14--14-14/12--12/14--14----|
D|-----------------------------------|
A|-----------------------------------|
E|-----------------------------------|

E|----------------------------------------------------------|
B|----------------------------------------------------------|
G|--12/14--14-14--14-14-14/16---16-16-16/17--17-17-17/19-16-|
D|----------------------------------------------------------|
A|----------------------------------------------------------|
E|----------------------------------------------------------|

E|----------------------------------------------------------|
B|----------------------------------------------------------|
G|--16-16/14--14-14/12-12--12--12-11-12-11-12-11-12-11/7----|
D|----------------------------------------------------------|
A|----------------------------------------------------------|
E|----------------------------------------------------------|

Chorus

E|--7-7-7-7-7-7-7/9-9-9/10-10-10-10-10-10-10-10/12-12-12/14-|
B|--X-X-X-X-X-X-X-X-X-X-X--X--X--X--X--X--X--X-X---X--X-X---|
G|--4-4-4-4-4-4-4/6-6-6/7--7--7--7--7--7--7--7/9---9--9/11--|
D|----------------------------------------------------------|
A|----------------------------------------------------------|
E|----------------------------------------------------------|

E|--11-11-11-11-11-11-11/10-10-9-10--9-7--5-7----|
B|--X--X--X--X--X--X--X-X---X--X-X---X-X--X-X----|
G|--9--9--9--9--9--9--9/7---7--6-7---6-4--2-4----|
D|-----------------------------------------------|
A|-----------------------------------------------|
E|-----------------------------------------------| 

E|--7-7-7-7-7-7-7/9-9-9/10-10-10-10-10-10-10-10/12-12-12/14-|
B|--X-X-X-X-X-X-X-X-X-X-X--X--X--X--X--X--X--X-X---X--X-X---|
G|--4-4-4-4-4-4-4/6-6-6/7--7--7--7--7--7--7--7/9---9--9/11--|
D|----------------------------------------------------------|
A|----------------------------------------------------------|
E|----------------------------------------------------------|

E|--17--15-14--12-14-11-10--9--10--9---9--7--5--7------|
B|--X---X--X---X--X--X--X---X--X---X---X--X--X--X------|
G|--14--12-11--9--11-9--7---6--7---6---6--4--2--4------|
D|-----------------------------------------------------|
A|-----------------------------------------------------|
E|-----------------------------------------------------|

Solo (Not yet worked out, starts in B minor/D major)

Repeat main lead, chorus and intro lead)
Tap to rate this tab
# A B C D E F G H I J K L M N O P Q R S T U V W X Y Z