Song name
# A B C D E F G H I J K L M N O P Q R S T U V W X Y Z

Joe Satriani - Zzs Song tab





Joe Satriani
1998-Crystal Planet
Z.Z.'s Song
Transcribed by Daniel Ocon

Rhy. 1

E---------------------------2--2-------------------------------2----------|
B----------5--4-------------3--2-------------5--4--------------0----------|
G-------6--4--4----------4----------------6--4--4-----------4----------4--|
D-----4----------------2----------------4-----------------0----------2----|
A---2----------------0----------------2----------------------------0------|
E------------------------------------------------------3------------------|

E---------------------------2--2--------------2--5--7--------------0------|
B----------5--4-------------3--2--------------0--3--5--------------0------|
G-------6--4--4----------4-----------------4--------------------2---------|
D-----4----------------2-----------------0--------------------2-----------|
A---2----------------0----------------------------------------------------|
E-------------------------------------3--------------------2--------------|

Play Rhy. 1 two times

Rhy. 2

E---------------------------2--5--7--------------0------------------------|
B---------------------------0--3--5--------------0------------------------|
G----------2-------------4--------------------2---------------sl-sl-------|
D----h---2---2---------0--------------------2------------h---2--4--2------|
A---2-4-------------------------------------------------2-4---------------|
E-------------------3--------------------2--------------------------------|

E-----------2--5--7--------------0-----------------------------------2--5-|
B-----------0--3--5--------------0------------sl---------------------0--3-|
G--------4--------------------2--------------2--4---sl------------4-------|
D------0--------------------2------------h---------2--4---------0---------|
A---------------------------------------2-4-------------------------------|
E---3--------------------2-----------------------------------3------------|

E---7--------------0------------------------------------------------------|
B---5--------------0------------------------------------------------------|
G---------------2-----------------4---------------------------------------|
D-------------2-----------------2-----------------------------------------|
A--------------------------sl---------------------------------------------|
E----------2--------------3--5--------------------------------------------|

Rhy. 3

E---------------------------2--2------------------------------------------|
B----------5--4-------------3--2-------------5--4-------------------------|
G-------6--4--4----------4----------------6--4--4-------------------------|
D-----4----------------2----------------4---------------------------------|
A---2----------------0----------------2----------------2------------------|
E-------------------------------------------------------------------------|

Play Rhy. 3 four times

End!
Tap to rate this tab
# A B C D E F G H I J K L M N O P Q R S T U V W X Y Z