Song name
# A B C D E F G H I J K L M N O P Q R S T U V W X Y Z

Joe Satriani - Bamboo tab

-------------------------------------------------------------------------------
			     Bamboo - Joe Satriani
-------------------------------------------------------------------------------
Tabbed by:Wilbert Ocasaio
Email: turbo_rock@hotmail.com
              SOLOS ARE NOT INCLUDED,THE REQUIRE TREMOLO
Tuning:e b g d a e
This part start at 1:10 and finish in the end of the song.This is only the guitar part.
This song uses a lot of keyboard efects.  


e|---------------------------------------------------------------------------|
B|---------------------------------------------------------------------------|
G|-----4------2h4------4---------2---------4-------2h4------4--------2-------|  
D|--2----4-4-------2------4-4-----------2-----4-4--------2-----4-4-----------|
A|---------------------------------------------------------------------------|
E|---------------------------------------------------------------------------|

e|---------------------------------------------------------------------------|
B|---------------------------------------------------------------------------|
G|----2---------------2--------------------2----------------2----------------|
D|------0-0--4-5--------0-0--4h5/4------------0-0--4-5---------0-0--4h5/4----|
A|--3--------------3--------------------3-----------------3------------------|
E|--------------------------------------------------------------------------

Repeat all this until the song over. A sorry for not put solos the are hardcore to learn.

| /  slide up
| h  hammer-



===============================================================================
Tap to rate this tab
# A B C D E F G H I J K L M N O P Q R S T U V W X Y Z