Song name
# A B C D E F G H I J K L M N O P Q R S T U V W X Y Z

Joe Satriani - You Saved My Life tab

Hey, not my work, but if i can find how to play Strange Beautiful Music on the
internet, you deserve to too.

Rhythm Guitar is in blues tuning. Or Allman tuning, w/e you call it.

YOU SAVED MY LIFE
As recorded by Joe Satriani
Album Strange Beautiful Music
Transcribed by Gabriel Ortiz
Words and Music by Joe Satriani
Arranged by Joe Satriani


-chord chart-

E
0 0 0 0 x x

E5
0 0 0 x x x
	
E/Ab
x x x 0 0 0
	
E5/B
x x x x 0 0

A5
5 5 5 x x x
	
B5
7 7 7 x x x
	
F#5
2 2 2 x x x
	
F#5(type 2)
2 2 x x x x

F#7sus4
2 2 2 x 0 0
	
C#5
9 9 9 x x x
	
C#5(type 2)
9 9 x x x x
	
C#m7
9 9 9 x 0 0

E(type 2)
0 0 0 0 0 0
	
A/C#
9 10 9 x x x
	
B/Eb
11 12 11 x x x

Gtr I (E B E G# B E) - 'Untitled'
Gtr II (E A D G B E) - 'Untitled'
Gtr III (E A D G B E) - 'Untitled'
Gtr IV (E A D G B E) - 'Joe Satriani - Solo w/Wah'

 Intro
  Moderately Slow Q=80
  E E5E/Ab   E E5  E/Ab   E5E E5/BE5  A5     E5/B   A5  E5/B   A5  E5A5
 4/4
  Gtr I
  E S S +S S E  S  S +S S S S   S S     E  S S +S S E S S +S S S S S S
  | | |  | | |  |  |  | | | |   | |     |  | |  | | | | |  | | | | | |
  / / /  / / /  /  /  / / / /   / /     /  / /  / / / / /  / / / / / /

  Gtr II
  Q      E   E +Q         E     E      +W
|-----------------------------------|-----------------------------------|
|--------9---7-(7)--------9---------|-----------------------------------|
|------------------------------/9---|--(9)------------------------------|
|-----------------------------------|-----------------------------------|
|-----------------------------------|-----------------------------------|
|-----------------------------------|-----------------------------------|
|
| Gtr III
| Q      E   E +Q         E     E      +W
|-----------------------------------|-----------------------------------|
|-----------------------------------|-----------------------------------|
|--------9---8-(8)--------9---------|-----------------------------------|
|-----------------------------/11---|-(11)------------------------------|
|-----------------------------------|-----------------------------------|
|-----------------------------------|-----------------------------------|


  B5  E5/B   B5    E5/B   B5  E5/B5  A5     E5/B   E5  E/Ab   E5E E5E5
  E S S +S S E   S S +S S S S  S S     E  S S +S S E S S +S S S S S S
  | | |  | | |   | |  | | | |  | |     |  | |  | | | | |  | | | | | |
  / / /  / / /   / /  / / / /  / /     /  / /  / / / / /  / / / / / /

  Q      E   S S E    E   E    E       W
|----------------------------------|----------------------------------|
|------------7s9s7-----------------|----------------------------------|
|---------------------9---8----9---|--/9------------------------------|
|----------------------------------|----------------------------------|
|----------------------------------|----------------------------------|
|----------------------------------|----------------------------------|
|
| Q      E   S S E    E   E    E       Q.          E H
|----------------------------------|----------------------------------|
|----------------------------------|----------------------------------|
|------------8s9s8-----------------|----------------------------------|
|--------------------11---9---11---|-/11-----------9-9----------------|
|----------------------------------|----------------------------------|
|----------------------------------|----------------------------------|


  E E5E/Ab   E E5  E/Ab   E5E E5/BE5  A5     E5/B   A5  E5/B   A5  E5A5
  E S S +S S E  S  S +S S S S   S S     E  S S +S S E S S +S S S S S S
  | | |  | | |  |  |  | | | |   | |     |  | |  | | | | |  | | | | | |
  / / /  / / /  /  /  / / / /   / /     /  / /  / / / / /  / / / / / /

  Q      E   E +Q         E     E      +W
|-----------------------------------|----------------------------------|
|--------9---7-(7)--------9---------|----------------------------------|
|-------------------------------9---|--(9)-----------------------------|
|-----------------------------------|----------------------------------|
|-----------------------------------|----------------------------------|
|-----------------------------------|----------------------------------|
|
| Q      E   E +Q         E     E      +W
|-----------------------------------|----------------------------------|
|-----------------------------------|----------------------------------|
|--------9---8-(8)--------9---------|----------------------------------|
|-----------------------------/11---|-(11)-----------------------------|
|-----------------------------------|----------------------------------|
|-----------------------------------|----------------------------------|


  B5  E5/B   B5    E5/B   B5  E5/B5  A5     E5/B   E5       E/Ab    E5E E5E5
  E S S +S S E   S S +S S S S  S S     E  S S +S S E     S  S +S  S S S S  S
  | | |  | | |   | |  | | | |  | |     |  | |  | | |     |  |  |  | | | |  |
  / / /  / / /   / /  / / / /  / /     /  / /  / / /     /  /  /  / / / /  /

  Q      E   S S E    E   E    E       Q.          E    +H
|----------------------------------|---------------0----(0)-------------------||
|------------7s9s7-----------------|---------------0----(0)-------------------||
|---------------------9---8----9---|--/9--------------------------------------||
|----------------------------------|------------------------------------------||
|----------------------------------|------------------------------------------||
|----------------------------------|------------------------------------------||
|
| Q      E   S S E    E   E    E       Q       E   S  S  e     S  S S S S  S
|----------------------------------|------------------------------------------||
|----------------------------------|------------------------------------------||
|------------8s9s8-----------------|------------------------------------------||
|--------------------11---9---11---|-/11-----------------9-----9s11s9---------||
|----------------------------------|-----------7---9s11---------------7-9s11--||
|----------------------------------|------------------------------------------||


 Theme 1
  E E5E/Ab   E E5E/Ab    E5 E E5/E5  A5   E5/B     A5  E5/B   A5  E5A5
  E S S +S S E S S +S  S  S S  S S    E S S  +S  S E S S +S S S S S S
  | | |  | | | | |  |  |  | |  | |    | | |   |  | | | |  | | | | | |
  / / /  / / / / /  /  /  / /  / /    / / /   /  / / / /  / / / / / /

  Q      E   E E    S  S  E    E      Q       H.
|----------------------------------|----------------------------------|
|-------------------7s=9-12----9---|-12-----/14-----------------------|
|------------9-9-------------------|----------------------------------|
|----------------------------------|----------------------------------|
|----------------------------------|----------------------------------|
|----------------------------------|----------------------------------|
|
| Q      E   E E    S  S  E    E      Q       H.
|----------------------------------|----------------------------------|
|----------------------------------|----------------------------------|
|----------------------------------|----------------------------------|
|-------------------------9--------|--9-----/11-----------------------|
|-7----------7-7----9s11------11---|----------------------------------|
|----------------------------------|----------------------------------|


  B5     E5/B   B5   E5/B    B5  E5B5
  E    S S +S S E  S  S +S S S S S S
  |    | |  | | |  |  |  | | | | | |
  /    / /  / / /  /  /  / / / / / /

  S S  E    Q      H
|-9--------11------------------------|
|------------------------------------|
|---9s11-----------------------------|
|------------------------------------|
|------------------------------------|
|------------------------------------|
|
| H                S  S  E   E   E
|------------------------------------|
|------------------------------------|
|------------------------------------|
|------------------------------------|
|-----------------11s12s11---9---7---|
|------------------------------------|


  A5   E5/B    E5       E/Ab    E5   E E5/E5
  E  S S +S  S   E   S  S  +S S   S  S  S S
  |  | |  |  |   |   |  |   | |   |  |  | |
  /  / /  /  /   /   /  /   / /   /  /  / /

  H.                              E     S S
|-------------------------------------------|
|--------------------------------12---------|
|--------------------------------------11-9-|
|-------------------------------------------|
|-------------------------------------------|
|-------------------------------------------|
|
| Q      +S  S   E  +E      E    +Q
|-------------------------------------------|
|-------------------------------------------|
|-------------------------------------------|
|-------------------------------------------|
|-9------(9)-7-/11-(11)---/11---(11)--------|
|-------------------------------------------|


  E E5E/Ab   E E5  E/Ab   E5E E5/BE5  A5     E5/B   A5   E5/B    A5   E5/A5
  E S S +S S E  S  S +S S S S   S S     E  S S +S S E  S  S +S S  S S  S S
  | | |  | | |  |  |  | | | |   | |     |  | |  | | |  |  |  | |  | |  | |
  / / /  / / /  /  /  / / / /   / /     /  / /  / / /  /  /  / /  / /  / /

  Q      E   E +Q         E     E      +H              S  S  S S  S S  S S
|-----------------------------------|--------------------------------------|
|--------9---7-(7)--------9---------|-----------------12-10--9---10p9------|
|-------------------------------9---|--(9)----------------------------11---|
|-9---------------------------------|--------------------------------------|
|-----------------------------------|--------------------------------------|
|-----------------------------------|--------------------------------------|
|
| Q      E   E +Q         E     E      +W
|-----------------------------------|--------------------------------------|
|-----------------------------------|--------------------------------------|
|--------9---8-(8)--------9---------|--------------------------------------|
|-----------------------------/11---|-(11)---------------------------------|
|-----------------------------------|--------------------------------------|
|-----------------------------------|--------------------------------------|


  B5        E5/B     B5    E5/B   B5  E5/B5
  E      S  S  +S  S E   S S +S S S S  S S
  |      |  |   |  | |   | |  | | | |  | |
  /      /  /   /  / /   / /  / / / /  / /

  S  S  +E     +Q        E    E   E    E
|------------------------------------------|
|------------------------------------------|
|-9s11-(11)---(11)----------------8----9---|
|-----------------------------9------------|
|------------------------------------------|
|------------------------------------------|
|
| Q             E    S S E    E   E    E
|------------------------------------------|
|------------------------------------------|
|--------------------8s9s8-----------------|
|----------------------------11---9---11---|
|------------------------------------------|
|------------------------------------------|


  A5    E5/B   E5  E/Ab    E5  E E5E5
    E S S +S S E S S  +S S  S  S S S
    | | |  | | | | |   | |  |  | | |
    / / /  / / / / /   / /  /  / / /

    Q      E   E S E.      +Q
|-------------------------------------||
|---7----------9---9-------(9)--------||
|-------------------------------------||
|-------------------------------------||
|-------------------------------------||
|-------------------------------------||
|
|   Q      E   E S E.      +Q
|-------------------------------------||
|-------------------------------------||
|--------------9---9-------(9)--------||
|-/11---------------------------------||
|-------------------------------------||
|-------------------------------------||


 Theme 2
  F#F#E5/BpeF#7E5/B F#E5/B    F#E5/F#5 C#5  C#E5/Bpe 2) C#E5/BC#E5/B    C#E5C#5
  E S S S S  E  +S  S  S S  S S  S S     E  S  S    S S E +S  S  S  S S S S S
  | | | | |  |   |  |  | |  | |  | |     |  |  |    | | |  |  |  |  | | | | |
  / / / / /  /   /  /  / /  / /  / /     /  /  /    / / /  /  /  /  / / / / /

  Q     E    E  +E     E    E    E       E.    T T  E   E +E     S  S Q
|------------------------------------|----------------------------------------|
|-----------12-(12)---10----9--------|----------------------------------------|
|-------------------------------11---|-/13----11p9------9-(9)---11s13---------|
|------------------------------------|-------------11-------------------------|
|------------------------------------|----------------------------------------|
|------------------------------------|----------------------------------------|
|
| Q     E    E  +E     E    E    E       E.    T T  E   E +E     S  S Q
|------------------------------------|----------------------------------------|
|------------------------------------|----------------------------------------|
|------------------------------------|----------------------------------------|
|------------9--(9)------------------|----------------------------------------|
|---------------------12---11----9---|-/11-----9p7------7-(7)----9s11---------|
|------------------------------------|--------------9-------------------------|


  F#F#E5/BpeF#7E5/B F#E5/B    F#E5/F#5 C#5 C#E5/BpeC#E5/C#E5/B    C#E5/C#5
  E S S S S  E  +S  S  S S  S S  S S     E S S S S E +S S  S S  S S  S S
  | | | | |  |   |  |  | |  | |  | |     | | | | | |  | |  | |  | |  | |
  / / / / /  /   /  /  / /  / /  / /     / / / / / /  / /  / /  / /  / /

  Q     E    E  +E     E    E    E       H            E    S S  S S  S S
|------------------------------------|-----------------------------------|
|-----------12-(12)---10----9--------|-----------------------------------|
|-------------------------------11---|-/13----------------11p9-11p9------|
|------------------------------------|------------------------------11-9-|
|------------------------------------|-----------------------------------|
|------------------------------------|-----------------------------------|
|
| Q     E    E  +E     E    E    E       W
|------------------------------------|-----------------------------------|
|------------------------------------|-----------------------------------|
|------------------------------------|-----------------------------------|
|------------9--(9)------------------|-----------------------------------|
|---------------------12---11----9---|-/11-------------------------------|
|------------------------------------|-----------------------------------|


  F#5F#E5/BpeF#7E5/B F#E5/B    F#E5/F#5
   E S S S S  E  +S  S  S S  S S  S S
   | | | | |  |   |  |  | |  | |  | |
   / / / / /  /   /  /  / /  / /  / /

   Q     E    E  +E     E    E    E
|-------------------------------------|
|------------12-(12)---10----9--------|
|--9-----------------------------11---|
|-11----------------------------------|
|-------------------------------------|
|-------------------------------------|
|
|  Q     E    E  +E     E    E    E
|-------------------------------------|
|-------------------------------------|
|-------------------------------------|
|-------------9--(9)------------------|
|----------------------12---11----9---|
|-------------------------------------|


  C#5  C#E5/Bpe 2) C#E5/BC#E5/B      C#E5/BC#5
    E  S  S    S S E +S  S  S  S  S  S   S S
    |  |  |    | | |  |  |  |  |  |  |   | |
    /  /  /    / / /  /  /  /  /  /  /   / /

    E.    T T  E   E +E     S  S  E      E
|--------------------------------------------||
|--------------------------------------------||
|-/13----11p9------9-(9)---11s13-------/13---||
|-------------11-----------------------------||
|--------------------------------------------||
|--------------------------------------------||
|
|   E.    T T  E   E +E     E    +E      E
|--------------------------------------------||
|--------------------------------------------||
|--------------------------------------------||
|--------------------------------------------||
|-/11-----9p7------7-(7)----9----(9)---/11---||
|--------------9-----------------------------||


 Theme 3
  A5   E5/B   A5  E5/B    A5  E5/A5  B5  E5/B   B5  E5/B   B5  E5B5
  Gtr I
  E  S S +S S E S  S +S S S S  S S   E S S +S S E S S +S S S S S S
  |  | |  | | | |  |  | | | |  | |   | | |  | | | | |  | | | | | |
  /  / /  / / / /  /  / / / /  / /   / / /  / / / / /  / / / / / /

  Gtr III
  Q.          E S  S  S S E    E     H            H
|----------------------------------|-------------------------------|
|----------------------------------|-------------------------------|
|----------------------------------|-------------------------------|
|---------------------9---9s==11---|-9-----------------------------|
|-7-------------9s11---------------|-------------------------------|
|----------------------------------|-------------------------------|


  A5  E5/B   A5    E5/B   A5   E5A5  B5    E5/B   B5  E5/B   B5  E5B5
  E S S +S S E  S  S +S S  S S S S     E S S +S S E S S +S S S S S S
  | | |  | | |  |  |  | |  | | | |     | | |  | | | | |  | | | | | |
  / / /  / / /  /  /  / /  / / / /     / / /  / / / / /  / / / / / /

  Q      E   E +E     E    E   E       W
|----------------------------------|---------------------------------|
|----------------------------------|---------------------------------|
|----------------------------------|---------------------------------|
|------------9-(9)-----------------|---------------------------------|
|--------------------12---11---9---|-/11-----------------------------|
|----------------------------------|---------------------------------|


  A5  E5/B   A5  E5/B    A5  E5/A5  B5   E5/B   B5    E5/B   B5  E5B5
  E S S +S S E S  S +S S S S  S S   E  S S +S S  E  S S +S S S S S S
  | | |  | | | |  |  | | | |  | |   |  | |  | |  |  | |  | | | | | |
  / / /  / / / /  /  / / / /  / /   /  / /  / /  /  / /  / / / / / /

  H            S  S  S S E    E     E  E    E    E  H
|---------------------------------|----------------------------------|
|---------------------------------|----------------------------------|
|--------------------9---9--------|-9s11---11s==13-11----------------|
|--------------9s11----------11---|----------------------------------|
|---------------------------------|----------------------------------|
|---------------------------------|----------------------------------|


  A5  E5/B   A5   E5/B     A5     E5A5
  E S S +S S E  S  S +S  S   S  S S S
  | | |  | | |  |  |  |  |   |  | | |
  / / /  / / /  /  /  /  /   /  / / /

  H             S  S  S  S  +E    E
|-------------------------------------|
|--------------10s12----10-(10)---9---|
|-------------------------------------|
|-------------------------------------|
|-------------------------------------|
|-------------------------------------|


  B5         E5/B     B5  E5/B   B5  E5B5
   E      S  S  +S  S E S S +S S S S S S
   |      |  |   |  | | | |  | | | | | |
   /      /  /   /  / / / /  / / / / / /

   S  S  +E     +H.
|----------------------------------------||
|-10s12-(12)---(12)----------------------||
|----------------------------------------||
|----------------------------------------||
|----------------------------------------||
|----------------------------------------||


 Theme 4
  E E5E/Ab   E  E5   E/Ab   E5 E E5/BE5  A5     E5/B   A5  E5/B   A5  E5A5
  Gtr I
  E S S +S S  E   S  S +S S  S S   S S     E  S S +S S E S S +S S S S S S
  | | |  | |  |   |  |  | |  | |   | |     |  | |  | | | | |  | | | | | |
  / / /  / /  /   /  /  / /  / /   / /     /  / /  / / / / /  / / / / / /

  Gtr II
  Q      E    E  +Q          E     E      +H             H
|-------16---14-(14)--------16----12---|-(12)-----------------------------|
|--------------------------------------|----------------------------------|
|--------------------------------------|----------------------------------|
|--------------------------------------|----------------------------------|
|--------------------------------------|----------------------------------|
|--------------------------------------|----------------------------------|
|
| Gtr III
| Q      E    E  +Q          E     E      +H             H
|-------12---11-(11)--------12---------|----------------------------------|
|--------------------------------/14---|-(14)-----------------------------|
|--------------------------------------|----------------------------------|
|--------------------------------------|----------------------------------|
|--------------------------------------|----------------------------------|
|--------------------------------------|----------------------------------|


  B5  E5/B   B5       E5/B   B5   E5/B5  A5     E5/B   E5    E/Ab   E5E E5E5
  E S S +S S  E     S S +S S  S S  S S     E  S S +S S  E  S S +S S S S S S
  | | |  | |  |     | |  | |  | |  | |     |  | |  | |  |  | |  | | | | | |
  / / /  / /  /     / /  / /  / /  / /     /  / /  / /  /  / /  / / / / / /

  Q      E    S  S  E    E    E    E       Q.           E  H
|------------14s16s14---12---11---12---|-/12--------------------------------|
|--------------------------------------|---------------12-12----------------|
|--------------------------------------|------------------------------------|
|--------------------------------------|------------------------------------|
|--------------------------------------|------------------------------------|
|--------------------------------------|------------------------------------|
|
| Q      E    S  S  E    E    E    E       Q.           E  H
|------------11s12s11----9---------9---|------------------------------------|
|----------------------------12--------|-/14-----------12-12----------------|
|--------------------------------------|------------------------------------|
|--------------------------------------|------------------------------------|
|--------------------------------------|------------------------------------|
|--------------------------------------|------------------------------------|


  E E5E/Ab   E  E5   E/Ab   E5 E E5/BE5
  E S S +S S  E   S  S +S S  S S   S S
  | | |  | |  |   |  |  | |  | |   | |
  / / /  / /  /   /  /  / /  / /   / /

  Q      E    E  +Q          E     E
|-------16---14-(14)--------16----12---|
|--------------------------------------|
|--------------------------------------|
|--------------------------------------|
|--------------------------------------|
|--------------------------------------|
|
| Q      E    E  +Q          E     E
|-------12---11-(11)--------12---------|
|--------------------------------/14---|
|--------------------------------------|
|--------------------------------------|
|--------------------------------------|
|--------------------------------------|


  A5     E5/B   A5      E5/B   A5   E5/A5
    E  S S +S S  E    S S +S S  S S  S S
    |  | |  | |  |    | |  | |  | |  | |
    /  / /  / /  /    / /  / /  / /  / /

   +H                 H
|-(12)-----------------------------------|
|----------------------------------------|
|----------------------------------------|
|----------------------------------------|
|----------------------------------------|
|----------------------------------------|
|
|  +Q.           S S  S S  S S  S S  E
|---------------12-9---------------------|
|-(14)---------------12-9----------------|
|-------------------------11-9-----------|
|------------------------------11-9------|
|-----------------------------------11---|
|----------------------------------------|


  B5  E5/B   B5       E5/B   B5   E5/B5
  E S S +S S  E     S S +S S  S S  S S
  | | |  | |  |     | |  | |  | |  | |
  / / /  / /  /     / /  / /  / /  / /

  Q      E    S  S  E    E    E    E
|------------14s16s14---12---11---12---|
|--------------------------------------|
|--------------------------------------|
|--------------------------------------|
|--------------------------------------|
|--------------------------------------|
|
| Q      E    S  S  E    E    E    E
|------------11s12s11----9---------9---|
|----------------------------12--------|
|--------------------------------------|
|--------------------------------------|
|-9------------------------------------|
|--------------------------------------|


  A5    E5/B   E5   E/Ab     E5 E  E5/E5
   E  S S +S S  E S  S +S  S  S  S  S  S
   |  | |  | |  | |  |  |  |  |  |  |  |
   /  / /  / /  / /  /  /  /  /  /  /  /

   Q.           Q       S  S  S  S  S  S
|-12-------------------------------------|
|----------------------------------------|
|-----------------------------------9h11-|
|-----------------------------9h11-------|
|-----------------------9s11-------------|
|----------------------------------------|
|
|  Q       E    E S  S  S  S  S  S  S  S
|----------------------------14-12-------|
|-12-----------10-9h10p=9----------14-12-|
|-------------------------11-------------|
|----------------------------------------|
|----------------------------------------|
|----------------------------------------|


  E    E5E/Ab   E  E5E/Ab    E5 E  E5/E5
    E  S S +S S  E S  S +S S  S  S  S S
    |  | |  | |  | |  |  | |  |  |  | |
    /  / /  / /  / /  /  / /  /  /  / /

    Q.           E S  S  E    S  S  E
|---------------------------------------|
|---------------12-9--------------------|
|-/13----------------11--9---11s13------|
|---------------------------------------|
|---------------------------------------|
|---------------------------------------|
|
|   Q       E    E S  S  e    E     E
|---------------------------------------|
|---------------------------------------|
|---------------------------------------|
|------------------------9----9---------|
|------------------9s11------------11---|
|---------------12----------------------|


  A5   E5/B    A5       E5/B      A5  E5/A5
   E S S +S  S   E   S  S +S    S S S  S  S
   | | |  |  |   |   |  |  |    | | |  |  |
   / / /  /  /   /   /  /  /    / / /  /  /

   Q      S  S   E  +E     Q           S  S
|-------------------------------------------|
|-------------------------12b14-------12-10-|
|-11-----11s13---9--(9)---------------------|
|-------------------------------------------|
|-------------------------------------------|
|-------------------------------------------|
|
|  Q      S  S  +Q         Q           e
|-------------------------------------------|
|-------------------------------------------|
|-------------------------------------------|
|--9------9s11-(11)--------9b11--------9----|
|-------------------------------------------|
|-------------------------------------------|


  B5    E5/B   B5  E5/B   B5   E5/B5
   E  S S +S S E S S +S S  S S  S  S
   |  | |  | | | | |  | |  | |  |  |
   /  / /  / / / / /  / /  / /  /  /

   Q.          E e    S S  S S  S  S
|------------------------------------|
|-12---------------------------------|
|----------------9----8-9----8--9-11-|
|-------------------------11---------|
|------------------------------------|
|------------------------------------|
|
|  Q       H               E    E
|------------------------------------|
|------------------------------------|
|------------------------------------|
|--9-----------------------9s==11----|
|------------------------------------|
|------------------------------------|


  A5       E5/B   E5      E/Ab    E5E E5E5
   E     S S +S S  E    S S +S  S S S S S
   |     | |  | |  |    | |  |  | | | | |
   /     / /  / /  /    / /  /  / / / / /

   S  S  S S  S S  S S  S S  S  S Q
|------------------------------------------|
|--9-12-10-9----9-10-9----9-------9--------|
|------------11--------11---11s13----------|
|------------------------------------------|
|------------------------------------------|
|------------------------------------------|
|
|  Q          E    e    H
|------------------------------------------|
|------------------------------------------|
|------------------------------------------|
|-11---------------9----9------------------|
|------------------------------------------|
|------------------------------------------|


  E E5E/Ab   E  E5   E/Ab   E5 E E5/E5  A5     E5/B   A5   E5/B    A5  E5A5
  E S S +S S  E   S  S +S S  S S  S S     E  S S +S S E  S  S +S S S S S S
  | | |  | |  |   |  |  | |  | |  | |     |  | |  | | |  |  |  | | | | | |
  / / /  / /  /   /  /  / /  / /  / /     /  / /  / / /  /  /  / / / / / /

  Q      E    E  +Q          E    E      +H              S  S  E   S S S S
|-------16---14-(14)--------16---12---|-(12)------------12s14s12---7s9-7s5-|
|-------------------------------------|-----------------12s14s12---7s9-7s5-|
|-------------------------------------|------------------------------------|
|-------------------------------------|------------------------------------|
|-------------------------------------|------------------------------------|
|-------------------------------------|------------------------------------|
|
| Q      E    E  +Q          E    E      +W
|-------12---11-(11)--------12--------|------------------------------------|
|--------------------------------14---|-(14)-------------------------------|
|-------------------------------------|------------------------------------|
|-------------------------------------|------------------------------------|
|-------------------------------------|------------------------------------|
|-------------------------------------|------------------------------------|


  B5    E5/B     B5   E5/B    B5    E5/B5
  E   S S +S   S E  S S +S  S  S  S  S  S
  |   | |  |   | |  | |  |  |  |  |  |  |
  /   / /  /   / /  / /  /  /  /  /  /  /

  S S E   +Q        E    S  S  E     S  S
|-----------------------------12----------|
|-7s9-7---(7)------------9h10-------10p=9-|
|-----------------------------------------|
|-----------------------------------------|
|-----------------------------------------|
|-----------------------------------------|
|
| Q        S   S e  S S  S  S  S  S  S  S
|-----------------------------------------|
|---------12--10-9-10-9-------10s12-------|
|-----------------------11s13-------13s11-|
|-----------------------------------------|
|-----------------------------------------|
|-----------------------------------------|


              E5/B   B5   E5/B   B5   E5/B B5
   E      S   S +S S E  S S +S S S  S   S  S
   |      |   |  | | |  | |  | | |  |   |  |
   /      /   /  / / /  / /  / / /  /   /  /

   S  S  +H..
|-17s19-(19)----------------------------------||
|---------------------------------------------||
|---------------------------------------------||
|---------------------------------------------||
|---------------------------------------------||
|---------------------------------------------||
|
|  H                    Q        S  S  +E
|---------------------------------------------||
|----------------------12---------------------||
|-11------------------------------------------||
|--------------------------------9s11-(11)----||
|---------------------------------------------||
|---------------------------------------------||


 Guitar Solo
  C#E5/BC#E5/C#E5/BB5E5B5E5A5     A5  E5/BA5E5/A5E5/B B5E5B5E5C#5
  Gtr I
  E S S S S  E S S S S S S  E     E   S S S S  E S S  S S S S E
  | | | | |  | | | | | | |  |     |   | | | |  | | |  | | | | |
  / / / / /  / / / / / / /  /     /   / / / /  / / /  / / / / /

  Gtr IV
  Q     S E.   Q       E   +E     S S S S S E.   S E.     S E   +S
|-------------------------------|------------------------------------|
|-------------------------------|------------------------------------|
|-------------------------------|------------------------------------|
|-------------------------------|------------------------------------|
|--------------7-------9---(9)\-|-x-x-x-x--------7h9------9p7---(7)\-|
|-------7h9---------------------|---------7h9------------------------|


  C#E5/BC#E5/C#E5/BB5E5B5  E5A5      A5E5/BA5E5/A5E5/BB5E5B5E5C#5
  E S S S S  E S S S S   S S   E     E S S S S  E S S S S S S E
  | | | | |  | | | | |   | |   |     | | | | |  | | | | | | | |
  / / / / /  / / / / /   / /   /     / / / / /  / / / / / / / /

  Q     S E.   Q         E    +E     E S S S E.   S S E   S S E
|----------------------------------|----------------------------|
|----------------------------------|----------------------------|
|----------------------------------|----------------------------|
|----------------------------------|----------------------------|
|--------------7-------/11---(11)\-|-x-x-x--------6h7p6---6h7p6-|
|-------7h9------------------------|-------7h9------------------|


  C#E5/BC#E5/C#E5/BB5E5/B  B5E5A5    A5 E5/B    A5E5/A5E5/B B5E5B5E5/B  C#5
  E S S S S  E S S S S     S S E      E   S   S S S  E S S  S S S S      E
  | | | | |  | | | | |     | | |      |   |   | | |  | | |  | | | |      |
  / / / / /  / / / / /     / / /      /   /   / / /  / / /  / / / /      /

  Q     S E.   Q        a  Q       a  E  +E     S E.   S E.     E    a   E
|--------------------------------|-----------------------------------------|
|--------------------------------|-----------------------------------------|
|--------------------------------|-----------------------------------------|
|--------------------------------|-----------------------------------------|
|--------------7-------(7)s9-----|-9s11-(11)\----------7s9------9---(9)s11-|
|-------7h9----------------------|--------------7h9------------------------|


  C#5E5/BC#E5/C#E5/BB5E5B5E5A5  A5   E5/B  A5 E5A5  E5/BB5  E5B5 E5C#5
   E S S S S  E S S S S S S E   E     S  S  S S E   S S  S  S S  S E
   | | | | |  | | | | | | | |   |     |  |  | | |   | |  |  | |  | |
   / / / / /  / / / / / / / /   /     /  /  / / /   / /  /  / /  / /

   Q     S E.   Q       Q       S  S  S  S  S S S S S S +E    Q
|-----------------------------|--------------------------------------|
|-----------------------------|--------------------------------------|
|-----------------------------|--------------------------------------|
|-----------------------------|--------------------------------------|
|-\7------------7-------9-----|-9s11-11-11-11s9-x-x-7s9-(9)---9\-----|
|--------7h9------------------|--------------------------------------|


  C#5 E5/BC#E5/C#5 E5/BB5E5B5 E5A5      A5  E5/BA5E5/A5  E5/BB5 E5B5 E5C#5
  E   S S S  S E   S S S S  S S   E     E   S S S  S E   S S  S S  S S E
  |   | | |  | |   | | | |  | |   |     |   | | |  | |   | |  | |  | | |
  /   / / /  / /   / / / /  / /   /     /   / / /  / /   / /  / /  / / /

  S S S S S  S S S S S S S  E    +E     S S S S S  S S S S S  e    E   E
|-------------------------------------|-----------------------------------|
|-------------------------------------|-----------------------------------|
|-------------------------------------|-----------------------------------|
|------------------6s9-x-x-11---(11)\-|------------------6s9-11---11---9--|
|-x-x-x-x-9s11-x-x--------------------|-x-x-x-x-9s11-x-x------------------|
|-------------------------------------|-----------------------------------|


  C#E5/BC#E5/C#5   E5/BB5 E5B5 E5A5  A5E5/BA5 E5A5 E5/BB5 E5B5E5/C#5
  E S S S  S  E    S S  S S  S S E   E S S  S S  E S S  S S S  S E
  | | | |  |  |    | |  | |  | | |   | | |  | |  | | |  | | |  | |
  / / / /  /  /    / /  / /  / / /   / / /  / /  / / /  / / /  / /

  Q     S  S  S  S S S  S S  Q       Q      S S  E E    E   S  S E
|----------------------------------|-------------------------------|
|----------------------------------|-------------------------------|
|----------------------------------|-------------------------------|
|-9----------------6s9-11-9-11-----|-------11p9-------------9s11---|
|-------9s11-11-11-----------------|------------11-9---11----------|
|----------------------------------|-------------------------------|


  C#5 E5/BC#E5C#5 E5/BB5E5B5E5A5     A5E5/B  A5E5A5   E5/B B5 E5B5 E5C#5
  E   S S S S E   S S S S S S  E     E  S  S S S  E   S  S  S S  S S   E
  |   | | | | |   | | | | | |  |     |  |  | | |  |   |  |  | |  | |   |
  /   / / / / /   / / / / / /  /     /  /  / / /  /   /  /  / /  / /   /

  S S S S S S S S S S S S E   +E     E  S  S S S  S S S  S  S S  E    +E
|----------------------------------|---------------------------------------|
|----------------------------------|---------------------------------------|
|-4s6-6-6-6s8-8-8-8s9-9-9-9---(9)\-|---------8-9----8---------9-11---(11)\-|
|----------------------------------|------11-----11---9-11-11--------------|
|----------------------------------|---11----------------------------------|
|----------------------------------|---------------------------------------|


  C#E5/B C#E5C#5  E5/B B5 E5B5E5A5  A5E5/B A5 E5A5E5/B B5E5/B5 E5C#5
  E S  S S S E    S  S  S S S S E   E  S S  S S E S  S S  S S  S E
  | |  | | | |    |  |  | | | | |   |  | |  | | | |  | |  | |  | |
  / /  / / / /    /  /  / / / / /   /  / /  / / / /  / /  / /  / /

  E S  S S S S  S S  S  S S S S E   E  S S  Q     E.      S E.      S
|---------------------------------|---------------9---------9---------||
|---------------------------7s9-9-|---12-9-12------------12--------12-||
|--------8-9-9----9-11-11-9-------|-----------------------------------||
|---9-11-------11-----------------|-----------------------------------||
|---------------------------------|-----------------------------------||
|---------------------------------|-----------------------------------||


 Theme 5
  F#F#E5/BpeF#7E5/B F#E5/B    F#E5/F#5 C#5  C#E5/Bpe 2) C#E5/BC#E5/B    C#E5C#5
  Gtr I
  E S S S S  E  +S  S  S S  S S  S S     E  S  S    S S E +S  S  S  S S S S S
  | | | | |  |   |  |  | |  | |  | |     |  |  |    | | |  |  |  |  | | | | |
  / / / / /  /   /  /  / /  / /  / /     /  /  /    / / /  /  /  /  / / / / /

  Gtr IV
  >
  W                                      W
|-9----------------------------------|----------------------------------------|
|------------------------------------|----------------------------------------|
|------------------------------------|----------------------------------------|
|------------------------------------|----------------------------------------|
|------------------------------------|----------------------------------------|
|------------------------------------|----------------------------------------|
|
| Gtr II
| Q     E    E  +E     E    E    E       E.    T T  E   E +E     S  S Q
|------------------------------------|----------------------------------------|
|-----------12-(12)---10----9--------|----------------------------------------|
|-------------------------------11---|-/13----11p9------9-(9)---11s13---------|
|------------------------------------|-------------11-------------------------|
|------------------------------------|----------------------------------------|
|------------------------------------|----------------------------------------|
|
| Gtr III
| Q     E    E  +E     E    E    E       E.    T T  E   E +E     S  S Q
|------------------------------------|----------------------------------------|
|------------------------------------|----------------------------------------|
|------------------------------------|----------------------------------------|
|------------9--(9)------------------|----------------------------------------|
|---------------------12---11----9---|-/11-----9p7------7-(7)----9s11---------|
|------------------------------------|--------------9-------------------------|


  F#F#E5/BpeF#7E5/B F#E5/B    F#E5/F#5 C#5 C#E5/BpeC#E5/BC#5E5/B     C#5 E5C#5
  Gtr I
  E S S S S  E  +S  S  S S  S S  S S     E S S S S E +S   S  S  S  S  S  S S
  | | | | |  |   |  |  | |  | |  | |     | | | | | |  |   |  |  |  |  |  | |
  / / / / /  /   /  /  / /  / /  / /     / / / / / /  /   /  /  /  /  /  / /

  Gtr II
  Q     E    E  +E     E    E    E       H            S   S  S  S  S  S  S S
|------------------------------------|---------------12--11------------------|
|-----------12-(12)---10----9--------|----------------------12-----9---------|
|-------------------------------11---|-/13---------------------11----11--9s8-|
|------------------------------------|---------------------------------------|
|------------------------------------|---------------------------------------|
|------------------------------------|---------------------------------------|
|
| Gtr III
| Q     E    E  +E     E    E    E       H            E.        S  S  E.
|------------------------------------|--------------------------------9------|
|------------------------------------|--------------------------9-12---------|
|------------------------------------|---------------------------------------|
|------------9--(9)------------------|---------------------------------------|
|---------------------12---11----9---|-/11-----------------------------------|
|------------------------------------|---------------------------------------|


  F#5   F#E5/BpeF#7E5/B F#E5/B    F#E5/F#5
  E     S S S S  E  +S  S  S S  S S  S S
  |     | | | |  |   |  |  | |  | |  | |
  /     / / / /  /   /  /  / /  / /  / /

  S  E.     E    E  +E     E    E    E
|----------------------------------------|
|---------------12-(12)---10----9--------|
|-----------------------------------11---|
|-9s11-----------------------------------|
|----------------------------------------|
|----------------------------------------|
|
| Q         E    E  +E     E    E    E
|----------------------------------------|
|----------------------------------------|
|----------------------------------------|
|----------------9--(9)------------------|
|-------------------------12---11----9---|
|----------------------------------------|


  C#5  C#E5/Bpe 2) C#E5/BC#E5/B       C#E5/C#5
    E  S  S    S S E +S  S  S  S   S  S  S  S
    |  |  |    | | |  |  |  |  |   |  |  |  |
    /  /  /    / / /  /  /  /  /   /  /  /  /

    E.    T T  E   E +E     S  S  +E     S  S
|----------------------------------------------||
|----------------------------------------------||
|-/13----11p9------9-(9)---11s13-(13)---11s13--||
|-------------11-------------------------------||
|----------------------------------------------||
|----------------------------------------------||
|
|   E.    T T  E   E +E     S  S  +E     S  S
|----------------------------------------------||
|----------------------------------------------||
|----------------------------------------------||
|----------------------------------------------||
|-/11-----9p7------7-(7)----9s11-(11)----9s11--||
|--------------9-------------------------------||


 Theme 6
  A5       E5/B    A5  E5/B    A5  E5/A5  B5  E5/B   B5  E5/B   B5  E5B5
   E    S  S +S  S E S  S +S S S S  S S   E S S +S S E S S +S S S S S S
   |    |  |  |  | | |  |  | | | |  | |   | | |  | | | | |  | | | | | |
   /    /  /  /  / / /  /  / / / /  / /   / / /  / / / / /  / / / / / /

   S S +E    +Q      H                    W
|---------------------------------------|-------------------------------|
|---------------------------------------|-------------------------------|
|-13s9-(9)---(9)------------------------|-------------------------------|
|---------------------------------------|-------------------------------|
|---------------------------------------|-------------------------------|
|---------------------------------------|-------------------------------|
|
|  H                 S  S  e   E    E     W
|---------------------------------------|-------------------------------|
|---------------------------------------|-------------------------------|
|---------------------------------------|-------------------------------|
|--------------------------9---9s==11---|-9-----------------------------|
|--------------------9s11---------------|-------------------------------|
|---------------------------------------|-------------------------------|


  A5  E5/B   A5    E5/B   A5   E5A5  B5       E5/B   B5  E5/B   B5  E5B5
  Gtr I
  E S S +S S E  S  S +S S  S S S S   E    S   S +S S E S S +S S S S S S
  | | |  | | |  |  |  | |  | | | |   |    |   |  | | | | |  | | | | | |
  / / /  / / /  /  /  / /  / / / /   /    /   /  / / / / /  / / / / / /

  Gtr III
  Q      E   E +E     E    E   E     S S +H..
|----------------------------------|------------------------------------|
|----------------------------------|------------------------------------|
|----------------------------------|------------------------------------|
|------------9-(9)-----------------|------------------------------------|
|--------------------12---11---9---|-7s9-(9)----------------------------|
|----------------------------------|------------------------------------|


  A5  E5/B   A5  E5/B    A5  E5/A5  B5   E5/B   B5    E5/B   B5  E5B5
  E S S +S S E S  S +S S S S  S S   E  S S +S S  E  S S +S S S S S S
  | | |  | | | |  |  | | | |  | |   |  | |  | |  |  | |  | | | | | |
  / / /  / / / /  /  / / / /  / /   /  / /  / /  /  / /  / / / / / /

  H            S  S  S S E    E     E  E    E    E  H
|---------------------------------|----------------------------------|
|---------------------------------|----------------------------------|
|--------------------9---9--------|-9s11---11s==13-11----------------|
|--------------9s11----------11---|----------------------------------|
|---------------------------------|----------------------------------|
|---------------------------------|----------------------------------|


  A/C#   E5/B   A/C#    E5/B   A/C#    E5A/C#B/Eb E5/B   B/Eb E5/B   B/Eb E5B/Eb
    E  S S +S S  E   S  S +S S   S  S  S S    E S S +S S E  S S +S S  S S S S
    |  | |  | |  |   |  |  | |   |  |  | |    | | |  | | |  | |  | |  | | | |
    /  / /  / /  /   /  /  / /   /  /  / /    / / /  / / /  / /  / /  / / / /

   +Q.           E  +E     E    +S  E.        Q      q      q         Q
|------------------------------------------|----------------------------------||
|---------------12-(12)---10---(10)-9------|---------9-----10--------12-------||
|-(11)-------------------------------------|-11-------------------------------||
|------------------------------------------|----------------------------------||
|------------------------------------------|----------------------------------||
|------------------------------------------|----------------------------------||


 Out-Theme
  E    E5E/Ab   E  E5   E/Ab   E5 E E5/E5
  Gtr I
    E  S S +S S  E   S  S +S S  S S  S S
    |  | |  | |  |   |  |  | |  | |  | |
    /  / /  / /  /   /  /  / /  / /  / /

  Gtr II
    Q       E    E  +Q          E    E
|----------16---14-(14)--------16---12---|
|----------------------------------------|
|----------------------------------------|
|----------------------------------------|
|----------------------------------------|
|----------------------------------------|
|
| Gtr III
|  +Q       E    E  +Q          E    E
|----------------------------------------|
|-(12)-----------------------------------|
|-----------9----8--(8)---------9--------|
|-----------------------------------11---|
|----------------------------------------|
|----------------------------------------|


  A5     E5/B   A5   E5/B     A5    E5A5
    E  S S +S S E  S  S +S  S  S  S S  S
    |  | |  | | |  |  |  |  |  |  | |  |
    /  / /  / / /  /  /  /  /  /  / /  /

   +H              S  S  S  S  S  S S  S
|-(12)------------12-14------------------|
|-----------------------12-14------------|
|-----------------------------11-13-9-11-|
|----------------------------------------|
|----------------------------------------|
|----------------------------------------|
|
|  +W
|----------------------------------------|
|----------------------------------------|
|----------------------------------------|
|-(11)-----------------------------------|
|----------------------------------------|
|----------------------------------------|


  B5   E5/B   B5       E5/B   B5   E5/B5
   E S S +S S  E     S S +S S  S S  S S
   | | |  | |  |     | |  | |  | |  | |
   / / /  / /  /     / /  / /  / /  / /

   Q      E    S  S  E    E    E    E
|-------------14s16s14---12---11---12---|
|---------------------------------------|
|-11------------------------------------|
|---------------------------------------|
|---------------------------------------|
|---------------------------------------|
|
|  Q      E    S  S  E    E    E    E
|---------------------------------------|
|---------------------------------------|
|--------------8s=9s=8------------------|
|------------------------11----9---11---|
|---------------------------------------|
|---------------------------------------|


  A5     E5/B   E5     E/Ab     E5E E5/E5
    E  S S +S S E   S  S   +S S S S  S S
    |  | |  | | |   |  |    | | | |  | |
    /  / /  / / /   /  /    / / / /  / /

    H              +E    a  E   S S  S S
|--12-------------(12)---7h=9---7---------|
|------------------------7h=9---7-9-------|
|-----------------------------------11-9--|
|-----------------------------------------|
|-----------------------------------------|
|-----------------------------------------|
|
|   Q.          E   H
|-----------------------------------------|
|-----------------------------------------|
|-----------------------------------------|
|-/11-----------9---9---------------------|
|-----------------------------------------|
|-----------------------------------------|


  E   E5E/Ab   E  E5   E/Ab   E5 E E5/E5
    E S S +S S  E   S  S +S S  S S  S S
    | | |  | |  |   |  |  | |  | |  | |
    / / /  / /  /   /  /  / /  / /  / /

    Q      E    E  +Q          E    E
|---------16---14-(14)--------16---12---|
|---------------------------------------|
|-/13-----------------------------------|
|---------------------------------------|
|---------------------------------------|
|---------------------------------------|
|
|   Q      E    E  +Q          E    E
|---------------------------------------|
|---------------------------------------|
|----------9----8--(8)---------9--------|
|----------------------------------11---|
|---------------------------------------|
|---------------------------------------|


  A5     E5/B   A5    E5/B   A5     E5A5
    E  S S +S S E  S  S +S S  S  S  S S
    |  | |  | | |  |  |  | |  |  |  | |
    /  / /  / / /  /  /  / /  /  /  / /

   +H              E     e    S  E.
|-(12)------------------12---12---------|
|-------------------------------14------|
|---------------------------------------|
|---------------------------------------|
|---------------------------------------|
|---------------------------------------|
|
|  +Q       e   E +E     e    S  E.
|----------12---9-(9)-------------------|
|-----------------------12---10--9------|
|---------------------------------------|
|-(11)----------------------------------|
|---------------------------------------|
|---------------------------------------|


  B5    E5/B   B5    E5/B   B5  E5/B5
    E S S +S S E   S S +S S S S  S S
    | | |  | | |   | |  | | | |  | |
    / / /  / / /   / /  / / / /  / /

    Q      Q       H
|-/14--------------------------------|
|------------------------------------|
|------------------------------------|
|------------------------------------|
|------------------------------------|
|------------------------------------|
|
|   Q      E   S S E    E   E    E
|------------------------------------|
|------------------------------------|
|--11----------8s9s8-----------------|
|----------------------11---9---11---|
|------------------------------------|
|------------------------------------|


  A5        E5/B    E5       E/Ab   E5E E5E5
    E     S  S +S S  E     S S +S S S S S S
    |     |  |  | |  |     | |  | | | | | |
    /     /  /  / /  /     / /  / / / / / /

    S   S S  S  S S  E     H
|-------------------------------------------|
|--12--10-9---------------------------------|
|-----------11--9-8-------------------------|
|-------------------11-----9----------------|
|-------------------------------------------|
|-------------------------------------------|
|
|   Q.               S  S  H
|-------------------------------------------|
|-------------------------------------------|
|-------------------------------------------|
|-/11---------------------------------------|
|--------------------9s11-11----------------|
|-------------------------------------------|


  E E5E/Ab   E E5E/Ab   E5E E5E5  A5   E5/B   A5  E5/B   A5      E5A5
  E S S +S S E S S +S S S S S S   E  S S +S S E S S +S S  S    S S S
  | | |  | | | | |  | | | | | |   |  | |  | | | | |  | |  |    | | |
  / / /  / / / / /  / / / / / /   /  / /  / / / / /  / /  /    / / /

  W                               H.                      Q
|-------------------------------|------------------------14b16-------|
|-------------------------------|------------------------------------|
|-------------------------------|------------------------------------|
|-------------------------------|------------------------------------|
|-------------------------------|------------------------------------|
|-------------------------------|------------------------------------|
|
| W                               W
|-------------------------------|------------------------------------|
|-------------------------------|------------------------------------|
|-------------------------------|------------------------------------|
|-------------------------------|------------------------------------|
|-------------------------------|------------------------------------|
|-------------------------------|------------------------------------|


  B5          E5/B   B5  E5/B   B5  E5B5
   E      S   S +S S E S S +S S S S S S
   |      |   |  | | | | |  | | | | | |
   /      /   /  / / / / /  / / / / / /

   S  S  +H..
|-12h14-(14)----------------------------|
|---------------------------------------|
|---------------------------------------|
|---------------------------------------|
|---------------------------------------|
|---------------------------------------|
|
|  W
|---------------------------------------|
|---------------------------------------|
|---------------------------------------|
|---------------------------------------|
|---------------------------------------|
|---------------------------------------|


  A5  E5/B   E5  E/Ab      E5   E E5/B E5
  E S S +S S E S S +S    S   S  S   S  S
  | | |  | | | | |  |    |   |  |   |  |
  / / /  / / / / /  /    /   /  /   /  /

  H            E    E       +E     +E
|----------------------------------------|
|------------------19b21---(19)---(19)---|
|----------------------------------------|
|----------------------------------------|
|----------------------------------------|
|----------------------------------------|
|
| W
|----------------------------------------|
|----------------------------------------|
|----------------------------------------|
|----------------------------------------|
|----------------------------------------|
|----------------------------------------|


  E  E5E/Ab   E  E5   E/Ab   E5 E E5/E5
   E S S +S S  E   S  S +S S  S S  S S
   | | |  | |  |   |  |  | |  | |  | |
   / / /  / /  /   /  /  / /  / /  / /

   e E    E    E  +Q          E    E
|-19-----16---14-(14)--------16---12---|
|--------------------------------------|
|--------------------------------------|
|--------------------------------------|
|--------------------------------------|
|--------------------------------------|
|
|  Q      E    E  +Q          E    E
|--------12---11-(11)--------12--------|
|---------------------------------14---|
|--------------------------------------|
|--------------------------------------|
|--------------------------------------|
|--------------------------------------|


  A5     E5/B   A5       E5/B   A5    E5/A5
    E  S S +S S  E     S S +S S  S  S  S  S
    |  | |  | |  |     | |  | |  |  |  |  |
    /  / /  / /  /     / /  / /  /  /  /  /

   +H                  H
|-(12)--------------------------------------|
|-------------------------------------------|
|-------------------------------------------|
|-------------------------------------------|
|-------------------------------------------|
|-------------------------------------------|
|
|  +Q.           S  S  S S  S S  S  S  S  S
|---------------11s12s11-9------------------|
|-(14)---------------------12---12s14-12-10-|
|-------------------------------------------|
|-------------------------------------------|
|-------------------------------------------|
|-------------------------------------------|


  B5     E5/B   B5       E5/B    B5   E5/B5
    E  S S +S S  E     S  S +S S  S S  S S
    |  | |  | |  |     |  |  | |  | |  | |
    /  / /  / /  /     /  /  / /  / /  / /

    H                  S  S  e    E    E
|---------------------14s16-14---12s==11---|
|------------------------------------------|
|------------------------------------------|
|------------------------------------------|
|------------------------------------------|
|------------------------------------------|
|
|   E  Q         S  S  E     E    E    E
|---------------11s12s11-----9---------9---|
|--------------------------------12--------|
|-/13-11-----------------------------------|
|------------------------------------------|
|------------------------------------------|
|------------------------------------------|


  A5        E5/B   E5     E/Ab   E5E E5E5
    E     S S +S S   E  S S +S S S S S S
    |     | |  | |   |  | |  | | | | | |
    /     / /  / /   /  / /  / / / / / /

    S  E.      E     e  H
|--11s12-----------/16-16-----------------|
|-----------------------------------------|
|-----------------------------------------|
|-----------------------------------------|
|-----------------------------------------|
|-----------------------------------------|
|
|   Q.               E  H
|-------------------16-16-----------------|
|-/14-------------------------------------|
|-----------------------------------------|
|-----------------------------------------|
|-----------------------------------------|
|-----------------------------------------|


  E E5E/Ab   E E5E/Ab   E5E E5E5  A5  E5/B    A5       E5/B   A5     E5/A5
  E S S +S S E S S +S S S S S S   E S  S +S S  E     S S +S S   S  S  S  S
  | | |  | | | | |  | | | | | |   | |  |  | |  |     | |  | |   |  |  |  |
  / / /  / / / / /  / / / / / /   / /  /  / /  /     / /  / /   /  /  /  /

  W                               H                  E    S S   S  S  S  S
|-------------------------------|------------------------------12-------11-|
|-------------------------------|-------------------------7s9------9-------|
|-------------------------------|------------------------------------------|
|-------------------------------|------------------------------------------|
|-------------------------------|------------------------------------------|
|-------------------------------|------------------------------------------|
|
| W                               E S  S  E    S S   e    E    +E     E
|-------------------------------|------------------------------------------|
|-------------------------------|------------------------------------------|
|-------------------------------|---------9------9-/13---11---(11)---------|
|-------------------------------|---9-11------11---------------------11----|
|-------------------------------|------------------------------------------|
|-------------------------------|------------------------------------------|


  B5         E5/B   B5     E5/B     B5   E5B5
  E      S   S +S S E    S  S +S  S S  S S S
  |      |   |  | | |    |  |  |  | |  | | |
  /      /   /  / / /    /  /  /  / /  / / /

  S  S   S   S  S S S  S S  S  S  S S  S S S
|--------9-----------------------------------|
|-9----------9-12-9---10-9-----9-------------|
|--------------------------11----11-9-11-9-8-|
|--------------------------------------------|
|--------------------------------------------|
|--------------------------------------------|
|
| S  S  +H..
|--------------------------------------------|
|--------------------------------------------|
|-9s11-(11)----------------------------------|
|--------------------------------------------|
|--------------------------------------------|
|--------------------------------------------|


  A5       E5/B   E5      E/Ab   E5E E5E5
  E      S S +S S E     S S +S S S S S S
  |      | |  | | |     | |  | | | | | |
  /      / /  / / /     / /  / / / / / /

  S T T  S S  S S S  S  H
|----------------------------------------|
|----------------------------------------|
|-8h9p8----8--9-8-9s11-11----------------|
|-------11-------------------------------|
|----------------------------------------|
|----------------------------------------|
|
| S T T  S S  S S S  S  H
|----------------------------------------|
|----------------------------------------|
|-8h9p8----9-----------------------------|
|-------11----9-7------------------------|
|-----------------9s11-11----------------|
|----------------------------------------|


  E   E5E/Ab    E    E5  E/Ab     E5  E  E5/E5
  E   S S +S  S  E    S   S +S  S  S   S  S S
  |   | |  |  |  |    |   |  |  |  |   |  | |
  /   / /  /  /  /    /   /  /  /  /   /  / /

  E   S S  S  S  S S  S   S  S  S  S   S  E
|----------------------------------------12---|
|---------------------------12-12-12s=14------|
|----------------9-9-11s=13-------------------|
|-----9-9--9s11-------------------------------|
|---------------------------------------------|
|---------------------------------------------|
|
| S S S S  E     E   +E      E    +E      S S
|---------------------------------------------|
|---------------------------------------------|
|---------------------------------------------|
|-4s6-6-6--6----/7---(7)----/9----(9)-----7-6-|
|---------------------------------------------|
|---------------------------------------------|


  A5       E5/B          A5        E5/B      A5   E5/A5
   E     S  S +S      S   E     S  S +S    S  S S  S S
   |     |  |  |      |   |     |  |  |    |  | |  | |
   /     /  /  /      /   /     /  /  /    /  / /  / /

   S  e     S  S     +S   S  S  E     E       Q
|-14s16-------16b17r(16)-14-12-14----14b16---14---------|
|----------14-------------------------------------------|
|-------------------------------------------------------|
|-------------------------------------------------------|
|-------------------------------------------------------|
|-------------------------------------------------------|
|
|  E     E     E          E    +Q.                 E
|-------------------------------------------------------|
|-------------------------------------------------------|
|-------------------------------------------------------|
|--4----/6----/7----------2----(2)----------------/6----|
|-------------------------------------------------------|
|-------------------------------------------------------|


  B5       E5/B     B5       E5/B    B5   E5B5
   E     S  S  +S S E     S  S  +S S S  S S  S
   |     |  |   | | |     |  |   | | |  | |  |
   /     /  /   / / /     /  /   / / /  / /  /

   S   S S  S  +H                    E.      s
|-14s=12-9-11-(11)--------------------------12-|
|----------------------------------------------|
|----------------------------------------------|
|----------------------------------------------|
|----------------------------------------------|
|----------------------------------------------|
|
| +Q            S S S  S +E      E   Q
|----------------------------------------------|
|----------------------------------------------|
|----------------------------------------------|
|-(6)-----------2s4-6-/9-(9)---/11---9---------|
|----------------------------------------------|
|----------------------------------------------|


  H.=H
  A5            E5/B            E5E(type 2)
   E        S   S    +S    S    E  E  +Q.     +W
   |        |   |     |    |    |  |   |       |
   /        /   /     /    /    /  /   /       /

   |--3--|  |--3---|  |---3---|
   S   S S  S S    S  S  S    S E +H           W
|--9----------------------------------------|-------*|
|-----12-9----------------------------------|-------*|
|----------11-9-----------------------------|-------*|
|-----------------11--9-11---11-9-(9)-------|-------*|
|-------------------------------------------|-------*|
|-------------------------------------------|-------*|
|
| +W                                           W
|-------------------------------------------|-------*|
|-------------------------------------------|-------*|
|-------------------------------------------|-------*|
|-(9)---------------------------------------|-------*|
|-------------------------------------------|-------*|
|-------------------------------------------|-------*|



Duration Legend
---------------
W - whole; H - half; Q - quarter; E - 8th; S - 16th; T - 32nd; X - 64th; a - acciaccatura
+ - note tied to previous; . - note dotted; .. - note double dotted
Uncapitalized letters represent notes that are staccato (1/2 duration)
Irregular groupings are notated above the duration line
Duration letters will always appear directly above the note/fret number it represents the
duration for.  Duration letters with no fret number below them represent rests.  Multi-
bar rests are notated in the form Wxn, where n is the number of bars to rest for.  Low
melody durations appear below the staff

Tablature Legend
----------------
 h   - hammer-on
 p   - pull-off
 b   - bend
 pb  - pre-bend
 r   - bend release (if no number after the r, then release immediately)
 /\  - slide into or out of (from/to "nowhere")
 s   - legato slide
 S   - shift slide
 - natural harmonic
[n]  - artificial harmonic
n(n) - tapped harmonic
 ~   - vibrato
 tr  - trill
 T   - tap
 TP  - trem. picking
 PM  - palm muting
\n/  - tremolo bar dip; n = amount to dip
 \n  - tremolo bar down
 n/  - tremolo bar up
/n\  - tremolo bar inverted dip
 =   - hold bend; also acts as connecting device for hammers/pulls
 <> - volume swell (louder/softer)
 x   - on rhythm slash represents muted slash
 o   - on rhythm slash represents single note slash

Misc Legend
-----------
 |  - bar
||  - double bar
||o - repeat start
o|| - repeat end
*|  - double bar (ending)
 :  - bar (freetime)
 $  - Segno
 &  - Coda
Tempo markers -  = BPM(8/16=s8/s16), where s8 = swing 8ths, s16 = swing 16ths
Tap to rate this tab
# A B C D E F G H I J K L M N O P Q R S T U V W X Y Z