Song name
# A B C D E F G H I J K L M N O P Q R S T U V W X Y Z

Joe Satriani - Crushing Day tab

this is the begining of crushing day i have more coming im just
too lazy to tab it right now so ill have it in a few days


                                              hold bend then release

e|-----------------------------------------------------------------------|
b|-----------------------------------------------------------------------|
g|---------0-3-0-5-0-3-0---------------0-3-0-5-0-3-0----------------0-3-0|
d|---0-3-5---------------5-0-3-5-0-3-5----------------------5-0-3-5------|
a|---------------------------------------------------3^------------------|
e|-----------------------------------------------------------------------|


e|-----------------------------------------------------------------------|
b|-----------------------------------6---6-8~~~~~~-----------------------|
g|---5-0-3-0---------------0-3-5-6/7----------------------0-3-0-5-0-3-0--|
d|-----------5-0-3-5-0-3-5-------------------------0-3-5----------------5|
a|-----------------------------------------------------------------------|
e|-----------------------------------------------------------------------|

                                 P.H.
e|-----------------------------------------------------------------------|
b|-----------------------------------------------------------------------|
g|-------------0-3-0-5-0---3-0---3^---------0-3-0-5-0-3-0---0-3-0-5-0----|
d|-0-3-5-0-3-5-----------2-----2------0-3-5---------------3--------------|
a|-----------------------------------------------------------------------|
e|-----------------------------------------------------------------------|
                                pitch F

  P.H.
e|-------------|
b|-------------|
g|-------------|
d|-5~~~~~~~~~~~
a|-------------|
e|-------------|
  pitch G
Tap to rate this tab
# A B C D E F G H I J K L M N O P Q R S T U V W X Y Z