Song name
# A B C D E F G H I J K L M N O P Q R S T U V W X Y Z

Joe Satriani - Just Like Lightning tab

Joe Satriani
Just like Lightnin'
Super Colossal

intro guitar 2 (this riff is played throughout most of the song) u can make this riff 
cooler by adding in some pinch harmonics on those last 2 notes
-------------------|
-------------------|
-------------------|
---5---------------|
-------------------|
-3---3-6-3---------|

intro guitar 1
-----------------------------------------------------------------------|
-----------------------------------------------------------------------|
---5p3p0-5p3p0--------0-------------5p3p0-5p3p0-------0----------------|
----------------5p3p0----3-5-5-3-5--------------5p3p0----3-5-----------|
-------------------------------------------------------------3h5p3s1---|
---------------------------------------------------------------------3-|

--------------------------------------------------------------------------|
----------------------------6-6-5-3-1-0-----------------------------------|
---5p3p0-5p3p0--------0-----7-7-5-5-3-0---5p3p0-5p3------0----------------|
----------------5p3p0----------------------------5p3p0--------------------|
--------------------------------------------------------3h5-3-1-----------|
----------------------------------------------------------------3---------|

------------------------------------------------------|
-3-5-5-5--6-6-3-5-5-----------------------------------|
-----------------------5p3p0p-5p3p0-------0----3------|
------------------------------------5p3p0----35-5-----|
------------------------------------------------------|
------------------------------------------------------|

repeat twice
-----------------------------------------------------------------|
-----------------------------------------------------------------|
5-7-8-10---12-14-15-17---19-17-20-19  on 2nd end play19-17-20-22-|b
-----------------------------------------------------------------|
-----------------------------------------------------------------|
-----------------------------------------------------------------|

-----------------------------------------------------------------------|
-----------------------------------------------------------------------|
---5p3p0-5p3p0--------0-------------5p3p0-5p3p0-------0----------------|
----------------5p3p0----3-5-5-3-5--------------5p3p0----3-5-----------|
-------------------------------------------------------------3h5p3s1---|
---------------------------------------------------------------------3-|

------------------------------------------------------------------------------|
-------------------------66-8--6----------------------------------------------|
---5p3p0-5p3p0--------0--77-10-7---5p3p0-5p3p0-------0----3-------------------|
----------------5p3p0-------------------------5p3p0-----3---5-5---------------|
------------------------------------------------------------------------------|
------------------------------------------------------------------------------|


with wah wah
-------------------------------------------------------------------------|
-10--------------10----------------10---------------------10-------------|
----10-7-5h7--------10--7--5h7--------10-7--5h7-------------10-7--57-----|5>
------------------------------------------------------3------------------|
------------------------------4b5----------------3-5----5----------------|
-----------------------------------------------------5-------------------|slide

and im not sure how the solo goes yet

repeat 4 times(02:40)
-----------------------------------------------------------------|
-----------------------------------------------------------------|
5-7-8-10---12-14-15-17---19-17-20-19  on 2nd end play19-17-20-22-|b
-----------------------------------------------------------------|
-----------------------------------------------------------------|
-----------------------------------------------------------------|

-----------------------------------------------------------------------|
-----------------------------------------------------------------------|
---5p3p0-5p3p0--------0-------------5p3p0-5p3p0-------0----------------|
----------------5p3p0----3-5-35-----------------5p3p0----3-5-----------|
-------------------------------------------------------------3h5p3s1---|
---------------------------------------------------------------------3-|

---------------------------6-6-3------------------------------------------|
-------------------------3-------6----------------------------------------|
---5p3p0-5p3p0--------0-------------5p3p0-5p3p0-------0-----3-------7s----|
----------------5p3p0---------------------------5p3p0-----5---5-5---------|
--------------------------------------------------------------------------|
--------------------------------------------------------------------------|

if ne 1 knows the solo just put it up or email me steveeverett9798@aol.com
Tap to rate this tab
 
# A B C D E F G H I J K L M N O P Q R S T U V W X Y Z