Song name
# A B C D E F G H I J K L M N O P Q R S T U V W X Y Z

Joe Strummer And The Mescaleros - Island Hopping tab

Help us improve GuitareTab! Take a short survey!
Island Hopping  by Joe Strummer and the Latino Rockabilly war

                  
G                             C
Chop down the cherry trees on Mango street 

G                         G
Thats the council for you every week

G                   C
Im just the kind of seafaring guy

D                               G
who waits for the tide and the town to get high  (fill)

G                    C
i dont like to do a drop of work

G              G
drive a cab or paint the church

G                        C
its been the same since i dont know when

D                   G
so im going island hopping again

G                    C
been the same since i dont know when

D                    G
but im going island hopping again


one of the fills

--------------------------------
-10-10/12-10--------------------
-------------11-9---------------
-------------------12-12--------
--------------------------------
--------------------------------

Solo

---0-2-2/3-2-0---0--------0-0----
-3-----------3--3-2-2-2-----3-3--
--------------------------------- X 2
---------------------------------
---------------------------------
---------------------------------

intro bit (simplified)

-3-2---3-2---3-3-----------------
-----3-----3-3-3-----------------
--------------------------------- 
---------------------------------
---------------------------------
---------------------------------

Im a beginner so there´s probably some wrongs
Corrections and improvements are very welcomed



Related for Island Hopping tab