Song name
# A B C D E F G H I J K L M N O P Q R S T U V W X Y Z

Joe Veras - Desde Que Me Dejaste tab

key is  D#m
Intro
together with bass   Solo
       D#m              C#
E||:-------------:||:-------------:|
B||:-------------:||:---6---6-----:|
G||:-------------:||:-----8---6---:|
D||:-------------:||:-6-----------:|
A||:---9-8-6-6---:||:-------------:|
E||:-6-----------:||:-------------:|

       D#m                 B
E||:----14-13-11-11---:|----11----------------11----11------|
B||:-11---------------:|-------14-12-12----------14----12---|
G||:------------------:|-11----------------11---------------|
D||:------------------:|------------------------------------|
A||:------------------:|------------------------------------|
E||:------------------:|------------------------------------|

      C#                      F#
E|-14-13-13-13-14-16-------13-14--------|
B|-------------------14-16-------(11)---|
G|--------------------------------------|
D|--------------------------------------|
A|--------------------------------------|
E|--------------------------------------|

        G#m                     D#m
E||:-------------11h13-11-------------11h13-11h13-11---|
B||:----------12---------------------------------------|
G||:-11-13-13----------------10-11-11------------------|
D||:---------------------------------------------------|
A||:---------------------------------------------------|
E||:---------------------------------------------------|

      A#                   1 D#m                2
E|-------------------------|------------------:||------|
B|----------13-15h16-15----|-------11---------:||------|
G|-13-15-15-------------16-|----11-------10---:||------|
D|-------------------------|-13-------13------:||-13---|
A|-------------------------|------------------:||------|
E|-------------------------|------------------:||------|

Verso
D#m            G#m	D#m
Desde que me dejaste

D#m          G#m      D#m
Ya se lo que perdi

D#m             G#m
Amor quiero que vuelvas

A#                 D#m   	D#7
Porque no se vivir sin ti

Coro
G#m		C#m
Voy a esperarte

F#		D#m
Porque te amo

G#m		A#
Si tu supieras

A#          D#
Cuanto te extrano

[|:
B
Sufriendo aqui estoy

G#m
Muriendo de amor

C#                  F#
No he vuelto ser el hombre que yo era

A#                      D#m
Desde que dejaste abandonado

G#m		      D#m
Me siento agotado, mi amor lo mataste

A#             D#m
Desde que me dejaste mujer
:|]

G#m		      D#m
Me siento agotado, mi amor lo mataste

A#             D#m
Desde que me dejaste mujer

Repite el intro

Mambo (A# D#m)

repeat el coro

B C# D#m


www.joeveras.com
Tap to rate this tab
# A B C D E F G H I J K L M N O P Q R S T U V W X Y Z