Guitaretab - guitar tabs
Song name
# A B C D E F G H I J K L M N O P Q R S T U V W X Y Z

Joe Veras - El Hombre De Tu Vida tab

capo en 7 traste
 Cm (x-x-10-0-0-0) 
A# (x-x-12-10-11-10) 
G# (x-x-10-0-9-x)
F (x-x-10-10-10-x)
G (X-X-X-8-7-7)
                                                2x
|:-----------------------------------------------:|
|:-----8-8h9p8---8-----------11h13p11------------:|
|:---8---------8---10------10---------10-10h12---:|
|:-10--------------------12-------------------13-:|
|:-----------------------------------------------:|
|:-----------------------------------------------:|

|----11-15p11--11-------11-13----10------11--15----15-|
|--13--------13-------13------13-------13----15----15-|
|12-----------------12---------------12---------12----|
|-----------------------------------------------------|
|-----------------------------------------------------|
|-----------------------------------------------------|
                    
|----11--13-----13--------11-15p11---11-------11-13----|
|--13----13-----13------13---------13-------13------13-|
|12---------12--------12------------------12-----------|
|------------------------------------------------------|
|------------------------------------------------------|
|------------------------------------------------------|

|-----------------------------------|
|------------------------11---11----|
|-----------------------0----0----0-|
|---10---------10-13---8----8----8--|
|-10---------10---------------------|
|8------10/11-----------------------|
[ Tab from: http://www.guitaretab.com/j/joe-veras/79397.html ]
  Cm                  A#
Yo sé,      que soy   yo
|---------------------------------------|
|----8-----8-------------11-----11------|
|---8-----8----8-------10-----10--------|
|-10----10---10------12-----12----------|
|---------------------------------------|
|---------------------------------------|
 
          G#      F             G
          Soy el  hombre de tu  vida
|-------------------------------------------|
|---------------------------------8---8-----|
|---------8----------10----------0---0--0---|
|-------10--10-----10--10-------9---9--9----|
|8-10-11----------8-------------------------|
|-------------------------------------------|

Cm                     A#
El hombre que soñabas tener
G#        F        G
Desde que tú eras niña
Cm                      A#
Y  aquien has sabido esperar
G#     F           G                          
Con tu cara de inocente
Cm               A#    
Queriendo disimular
G#        F         G        
Lo que te dice la gente
       
Cm              A#      
Logrando disimular
G#        F         G                             
Lo que te dice la gente
        

coro:
        Cm  
Ayyy de mí
                   A#            
Que soy un hombre malo
Cm              A#         
Que me gusta el trago
Cm              A#                      
Me gustan las mujeres
Cm                A#                              
Y tu no le haces caso mi amor
Cm               A#                               
Que no le haces caso ay dios
Cm               A#                           
Por siempre te amare (2x)
Cm              A#                       
Lo que diga la gente
Cm              A#                       
Me tiene sin cuidado
Cm                     A#                            
Siempre te llevo en mi mente
Cm              A#                          
Sólo sé que te amo(2x)

SOLO
  
Cm                       A#         
Yo soy el hombre que te ajusta,
G#        F        G                   
Yo soy tu número standard,
Cm           A#                          
De ayer y de hoy,
G#    F        G 
y quizás de mañana
Cm                   A#     
Ya ves que soy tu querer
G#        F             G                    
Siempre te llevo en mi mente
Cm                   A#            G#        F         G           
Por eso no debes llevarte mi amor, de lo que dice la gente
Cm               A#             G#         F        G             
Por eso no debes oir, no no no, to' lo que dice la gente,
        Cm            
Ayyy de mí ... coro
Related for El Hombre De Tu Vida tab
Advertisement will be closed in 10 seconds