Joe Walsh - Mother Says tab

Mother Says
Joe Walsh (Barnstorm)


Tabbed by: Sweet_Inc


Tuning:
Standard

e|---0--0---------0--0----------0--0-------------------------|
B|---0--0---2--2--0--0--2-2-2---0--0---2-2---3--3--2---3-----|
G|---1--1---2--2--1--1--2-2-2---1--1---2-2---0--0--2---0-----|
D|---2--2---2--2--2--2--2-2-2---2--2---2-2---0--0--2---0-----|
A|---2--2---0--0--2--2--0-0-0---2--2---0-0---3--2--0---------|
E|---0--0---------0--0----------0--0-------------------3-----|

e|---0--0---------0--0----------0--0-------------------------|
B|---0--0---2--2--0--0--2-2-2---0--0--2--2-------------------|
G|---1--1---2--2--1--1--2-2-2---1--1--2--2-------------------|
D|---2--2---2--2--2--2--2-2-2---2--2--2--2-------------------|
A|---2--2---0--0--2--2--0-0-0---2--2--0--0-------------------|
E|---0--0---------0--0----------0--0-------------------------|

e|---3--3--3--3---0-----3--3--3--3---------------------------|
B|---3--3--3--3---0-----3--3--3--3---2-----------------------|
G|---0--0--0--0---1-----0--0--0--0---2-----------------------|
D|---0-----0--0---2-----0--0--0--0---2-----------------------|
A|----------------2------------------0-----------------------|
E|---3-----2------0-----3-----2------------------------------|
Tap to rate this tab
 
# A B C D E F G H I J K L M N O P Q R S T U V W X Y Z