Song name
# A B C D E F G H I J K L M N O P Q R S T U V W X Y Z

Joe Walsh - Analog Man tab

     Walsh-Analog Man

    Riff
    e|-----------------------------|
    B|-----------------------------|
    G|------------------------2\14-|
    D|-----------------------------|
    A|--------0~~~3^-0-3^-0~~~~----|
    E|-0---3-----------------------|

    
    A
    Welcome to cyberspace, I'm lost in the fog
    C
    everything's digital I'm still analog
    G
    when something goes wrong I don't have a clue
    A
    some 10-year-old smart ass has to show me what to do
    A
    sign on with high speed you don't have to wait
    C
    sit there for days and vegetate
    G
    I access my email, read all my spam, I'm an
    A
     "Analog man"

            
            E                                       D
            the whole world's living in a digital dream
            E                            D
            it's not really there   it's all on the screen
            C                               D
            makes me forget who I am     I'm an 
            E                     E
            "Analog man"                yeah
            E                               A
            I'm an analog man in a digital world
            E                            G
            I'm gonna get me an "Analog girl"
            D                               A
            who loves me for what I am    I'm an
            E                         E
            "Analog man"                         

    
    A
    what's wrong with vinyl, I think it sounds great
    C
    LPs, Forty-Five's, Seventy-Eight's

    G
    but that's just the way I am I'm an
    A
    "Analog man"
    A
    turn on the tube, watch until dawn
    C
    one hundred channels, nothing is on
    G
    endless commercials,              endless commercials,
    A
    endless commercials

        
        E                                           A
        the whole world's glued to the cable TV
        E                             G
        it looks so real on the big LCD
        C                                 G
        murder and violence are rated PG,
        E                                E
        too bad for the children they are what they see 

    
    A\B   A\B            D\E    D\E
    A\B   A\B            D\E    D\E

    e|------------------------------------------------|
    B|--7\17~~--17\20~~--15\17--12\15-----5\7\3\5~~---|
    G|------------------------------------------------|
    D|---With slide-----------------------------------|
    A|------------------------------------------------|
    E|------------------------------------------------|

        
        E                                       D
        the whole world's living in a digital dream
        E                            D
        it's not really there   it's all on the screen
        C                               D
        makes me forget who I am     I'm an 
        E                     E
        "Analog man"                yeah
        E                               A
        I'm an analog man in a digital world
        E                            G
        I'm gonna get me an "Analog girl"
        D                               A
        who loves me for what I am    I'm an
        E                         E
        "Analog man"                                    
        E                                      D
        yeah I'm an analog man in a digital world

    Solo
    e|----------19-------------|-------------------------|-----------------------------|
    B|--19-19^21---19^21^19-17-|-17-19^-17-19^-17----17--|-----------------------------|
    G|-------------------------|------------------18-----|-6-4---4---------------------|
    D|-------------------------|-------------------------|-----6---6-4-2---2-----------|
    A|-------------------------|-------------------------|---------------4---4-2-------|
    E|-------------------------|-------------------------|-----------------------4-2-0-|

    Bass
    G|-------------------------|
    D|------------0-2-0-2------|
    A|-2-0---------------------|
    E|-----3-0-0---------------|
Tap to rate this tab
 
# A B C D E F G H I J K L M N O P Q R S T U V W X Y Z