Song name
# A B C D E F G H I J K L M N O P Q R S T U V W X Y Z

Joe Walsh - A Life Of Illusion tab

Others were wrong or in a different key. I stumbled upon this while forgetting I
was in Drop D. It seems to be close if not correct. First tab so gimme a break

Intro/Main Riff


e-------------------------------------x---------|
B-------------------------------------x---------|
G-------------------------------------2---------|
D-----------------------0-----2--0----4---------|
A-----------0-----2--0-----2----------0---------|
D--0--2--4-----4----------------------0---------|


e-------------------------------------x---------|
B-------------------------------------x---------|
G-------------------------------------2---------|
D-----------------------0-----2--0----4---------|
A-----------0-----2--0-----2----------0---------|
D--0--2--4-----4----------------------0---------|

Chords:
   G      Dflat A     G5
   x      0     0     0
   x      0     2     0
   X      2     2     0
   5      4     2     5
   5      0     0     5
   5      0     0     5

    G
Sometimes I can't help but feelin' that I'm
                    Dflat
Living a life of illusion
    G
And oh why can't we let it be and see through
                             Dflat
The hole in this wall of confusion
        A
I just can't help but feeling
     G                  Dflat
I'm living a life of illusion


(Intro/Main Riff)

 G
Pow,right between the eyes
                                    Dflat
Oh how nature loves her little surprises
 G
Wow,it all seems so logical now
                                           Dflat
It's just one of her better disguises
        A
And it comes with no warning
 G                                     Dflat
Nature loves her little surprises
A     G                Dflat
         Continual crisis

      d  d u d    d  d u d    d d d d d
(Solo)G5 G5G5G5 A G5 G5G5G5 A G5G5G5G5G5 Dflat

(Intro/Main Riff)


 G
Hey don't you know it's a waste of your day
                                  Dflat
Caught up in endless solutions
                     G
That have no meaning just another hunch
                        Dflat
Based upon jumping conclusions

A       G                         Dflat
         Caught up in endless solutions
A       G                               Dflat
         Backed up against a wall of confusion
A       G                  Dflat
         Living a life of illusion
Tap to rate this tab
# A B C D E F G H I J K L M N O P Q R S T U V W X Y Z