Song name
# A B C D E F G H I J K L M N O P Q R S T U V W X Y Z

Joe - Dreamy tab

hi this is my song i made it myself im 13 and iv only been playing for 1 year i liked 
sound of it so i thaught
i would share t with everyone dont think of copying it plz all you sad people copying a 
year old

E----------------|
B----------------|
G----------------|  repeat 4 times
D----------------|
A--2-2-2-2-3-2---|
E--3-3-3-3-2-0---|


try struming on this like up and down not just one way try and use a kind of scratching teqneuqe
E--------------------------------------|
B--------------------------------------|
G--------------------------------------|  repeat 5 times
D--------------------------------------|
A-7-7-7-7-5-3-3------------------------|
E-0-0-0-0-0-0-0------------------------|

E----------------|
B----------------|
G----------------|
D----------------|
A--2-2-2-2-3-2---|
E--3-3-3-3-2-0---|
same as the first part but is the end try and repeat the
whole song 4 times or maybe less
Tap to rate this tab
# A B C D E F G H I J K L M N O P Q R S T U V W X Y Z