Guitaretab - guitar tabs
Song name
# A B C D E F G H I J K L M N O P Q R S T U V W X Y Z

Joel Houston - Salvation Is Here tab

-----------------------------------------------------------
	      Salvation Is Here – Hillsong United
-----------------------------------------------------------

Tabbed by: Brandon Canning with the help of Zechariah Gill
E-mail: raw-rock-kills-29@hotmail.com
Tuning: Standard (EADGBe)

This song is done by two lead guitars, I’m not sure why but it is, this is a way to play 
at the same time, it’s pretty easy and sounds awesome, I use it at youth all the time.

Intro:
e|-------------------------------|
B|-12-12-12-12-12-12-11-11-11----|
G|-11-11-11-11-11-11-11-11-11-11-|X4
D|----------------------------9--|
A|-------------------------------|
E|-------------------------------|


Verse 1:
e|----|
B|-12-|
G|-11-|Till just before “we’re gonna be alright…yah”
D|----|
A|----|
E|----|

e|-------------|
B|-------------|
G|-------------|
D|-666-66--222-|  “we’re gonna be alright…yah”
A|-666-66--222-|
E|-444-44--000-|

Verse 2:
e|-------------------------------|
B|-12-12-12-12-12-12-11-11-11----|
G|-11-11-11-11-11-11-11-11-11-11-|X2
D|----------------------------9--|
A|-------------------------------|
E|-------------------------------|

e|----|
B|-12-|
G|-11-|Till just before “C’mon, we’re gonna be alright…yah”
D|----|
A|----|
E|----|

e|-------------|
B|-------------|
G|-------------|  “C’mon, we’re gonna be alright…yah”
D|-666-66--222-|
A|-666-66--222-|
E|-444-44--000-|


Chorus:
e|-------------------------------------|
B|-------------------------------------|
G|-44444444----------------------------|
D|-44444444-22222222-44444444-66666666-|
A|-22222222-22222222-44444444-66666666-|
E|----------00000000-22222222-44444444-|

e|-------------------------------|
B|-------------------------------|
G|-44444444----------666-666-----|
D|-44444444-22222222-666-666-222-|
A|-22222222-22222222-444-444-222-|
E|----------00000000---------000-|


Verse 3:
e|-------------------------------|
B|-12-12-12-12-12-12-11-11-11----|
G|-11-11-11-11-11-11-11-11-11-11-|X2
D|----------------------------9--|
A|-------------------------------|
E|-------------------------------|

e|----|
B|-12-|
G|-11-|Till just before “we’re gonna be alright…yah”
D|----|
A|----|
E|----|

e|-------------|
B|-------------|
G|-------------|   “we’re gonna be alright…yah”
D|-666-66--222-|
A|-666-66--222-|
E|-444-44--000-|
[ Tab from: http://www.guitaretab.com/j/joel-houston/137902.html ]
Chorus:
e|-------------------------------------|
B|-------------------------------------|
G|-44444444----------------------------|
D|-44444444-22222222-44444444-66666666-|
A|-22222222-22222222-44444444-66666666-|
E|----------00000000-22222222-44444444-|

e|-------------------------------|
B|-------------------------------|
G|-44444444----------666-666-----|X2
D|-44444444-22222222-666-666-222-|
A|-22222222-22222222-444-444-222-|
E|----------00000000---------000-|

Bridge:

e|--------------|
B|-99-999999999-|
G|-99p888888888-|The guitar is quiet on the bridge but I
D|--------------|  just play with this for a bit.
A|--------------|
E|--------------|

e|-------------------------------------|
B|-------------------------------------|
G|-44444444----------------------------|
D|-44444444-22222222-44444444-66666666-|
A|-22222222-22222222-44444444-66666666-|
E|----------00000000-22222222-44444444-|

e|---------------------------------------|
B|-------------------------------------12|
G|-44444444----------------------------11|
D|-44444444-22222222-44444444-66666666---|
A|-22222222-22222222-44444444-66666666---|
E|----------00000000-22222222-44444444---|


Mid-way through drum solo:
e|----|
B|-12-|
G|-11-| Play this till the chorus starts up again
D|----|
A|----|
E|----|

Chorus:
e|-------------------------------------|
B|-------------------------------------|
G|-44444444----------------------------|
D|-44444444-22222222-44444444-66666666-|
A|-22222222-22222222-44444444-66666666-|
E|----------00000000-22222222-44444444-|

e|-------------------------------|
B|-------------------------------|
G|-44444444----------666-666-----|
D|-44444444-22222222-666-666-222-|
A|-22222222-22222222-444-444-222-|
E|----------00000000---------000-|

Outro:

e|-------------------------------------|
B|-------------------------------------|
G|-44444444----------------------------|
D|-44444444-22222222-44444444-66666666-|
A|-22222222-22222222-44444444-66666666-|
E|----------00000000-22222222-44444444-|

e|-------------------------------------|
B|-------------------------------------|
G|-44444444----------------------------|
D|-44444444-22222222-44444444-66666666-|
A|-22222222-22222222-44444444-66666666-|
E|----------00000000-22222222-44444444-|

e|-------------------------------|            e|----|
B|-12-12-12-12-12-12-11-11-11----|            B|-12-|
G|-11-11-11-11-11-11-11-11-11-11-|X2  End on  G|-11-|
D|----------------------------9--|            D|----|
A|-------------------------------|            A|----|
E|-------------------------------|            E|----|


| /  slide up
| \  slide down
| h  hammer-on
| p  pull-off
| ~  vibrato
| +  harmonic
| x  Mute note
Related for Salvation Is Here tab
Salvation Is Here chords by Joel Houston