Guitaretab - guitar tabs
Song name
# A B C D E F G H I J K L M N O P Q R S T U V W X Y Z

Joel Houston - From The Inside Out tab

Hillsong United-
From the Inside Out
This tab is 100% correct i am sure this is right and there is no better solo
then there is here.

h=hammer on
/=SLIDE

The main chords in the song are F C G after two times then A minor F C G

Intro
E-------8----12---8-12-8-10-7---|
B--8h10---10----8-------------8-|
G-------------------------------|
D-------------------------------|
A-------------------------------|
E-------------------------------|
Play for 4 times

--SOLO--
E-5-/-8----8----8----8----8----8----8----8--|
B-7-/-10---10---10---10---10---10---10---10-|
G-------------------------------------------|
D-------------------------------------------|
A-------------------------------------------|
E-------------------------------------------|

E--8--8--8--8--8--8--8--12--12--12--12--12--12--12--12-|
B--8--8--8--8--10-10-10-13--13--13--13--13--13--13--13-|
G------------------------------------------------------|
D------------------------------------------------------|
A------------------------------------------------------|
E------------------------------------------------------|
[ Tab from: http://www.guitaretab.com/j/joel-houston/151764.html ]
E--13--13--13--13--12--12--12--12-|
B--13--13--13--13--13--13--13--13-|
G---------------------------------|
D---------------------------------|
A---------------------------------|
E---------------------------------|

E------------------------------------------------------------------|
B--13--12--10--12----13--12--10--10--12-------10---10--10-10-10-10-|
G-----------------10--------------------10--9----7-----7--7--7--7--|
D------------------------------------------------------------------|
A------------------------------------------------------------------|
E------------------------------------------------------------------|

E--12--12--10--10--8---8---15--15--15--15--15--15--15-|  < Play twice
B--13--13--12--12--10--10--13--13--13--13--13--13--13-|  < Play twice
G-----------------------------------------------------|
D-----------------------------------------------------|
A-----------------------------------------------------|
E-----------------------------------------------------|

E-----17----17----17---17-----19-|
B--15----15----15---15-----17----|
G--------------------------------|
D--------------------------------|
A--------------------------------|
E--------------------------------|

There you have it God bless.
Related for From The Inside Out tab