Guitaretab - guitar tabs
Song name
# A B C D E F G H I J K L M N O P Q R S T U V W X Y Z

Joel Houston - Scream tab

Tokio Hotel -  Scream
Tabbed by: HardSkaPunk

Hi! This is a prety god tab for this song.
I did it in standard tuning because there's only one Eb in the whole song (nanana part),
so if you want you can downtune your guitar one full step, or play it like me.
There's a couple of almost inaudible clean guitars i didn't care for either.

Intro
Second guitar does the little fill a fifth higher everytime (Same thing starting
in 3rd fret, D string)

e|------------------------|
B|------------------------|
G|--3-3----------------x--|
D|--3-3----------------x--|  x4
A|--1-1---1h2p1---1-1--x--|
E|--1-1---------4------x--|

----------(2nd gtr, clean)---4-------------|
-------------------------------6~----6-----|
--3~-----------------------------------6~--| 4x
--3~---4~----------------------------------|
--1~---------------------------------------|
--1~---2~----------------------------------|

Pickslide and:
pm . . . . . . . .
e|----------------------------------|
B|----------------------------------|
G|-8-8-8-8-8-8-8-8------------------|
D|-8-8-8-8-8-8-8-8--4-4-4-4-4-4-xx--|
A|-6-6-6-6-6-6-6-6--4-4-4-4-4-4-xx--|
E|-6-6-6-6-6-6-6-6--2-2-2-2-2-2-xx--|

Chorus
2x, second time there's a pause just like in the intro

e|---------------------|
B|---------------------|
G|--3-3-------------3--|
D|--3-3-------------3--| x3
A|--1-1---1h2p1---1-1--|
E|--1-1---------4---1--|

e|------------------------|
B|------------------------|
G|-------6-6-6-8-8--------|
D|--4-4--6-6-6-8-8--------| x1
A|--4-4--4-4-4-6-6--------|
E|--2-2--4-4-4-6-6--------|

Verse 2
Clean gtr starts earlier.

----------(clean)---4-------------|
----------------------6~----6-----|
--3~---------------------------6~-|
--3~---4~-------------------------|
--1~------------------------------|
--1~---2~--c----------------------|

Pickslide and:
pm . . . . . . . .
e|----------------------------------|
B|----------------------------------|
G|-8-8-8-8-8-8-8-8------------------|
D|-8-8-8-8-8-8-8-8--4-4-4-4-4-4-xx--|
A|-6-6-6-6-6-6-6-6--4-4-4-4-4-4-xx--|
E|-6-6-6-6-6-6-6-6--2-2-2-2-2-2-xx--|

Chorus 2
2x, second time there's a pause, you know

e|---------------------|
B|---------------------|
G|--3-3-------------3--|
D|--3-3-------------3--| x3
A|--1-1---1h2p1---1-1--|
E|--1-1---------4---1--|
[ Tab from: http://www.guitaretab.com/j/joel-houston/161577.html ]
B|------------------------|
G|-------6-6-x-8-8--------|
D|--4-4--6-6-x-8-8--------| x1
A|--4-4--4-4-x-6-6--------|
E|--2-2--4-4-x-6-6--------|


Breakdown
Each note 8 times
		     .Low Eb here
e|---------------------------------------|
B|---------------------------------------|
G|--------------8----8-------------------|
D|--8----4------8----8----3--------------|
A|--8----4------6----6----3--------------|
E|--6----2-----------6----1--------------|

Meanwhile the other guitar plays:
			.Last time
e|----------------------|--13--13h14p13--13~-|
B|--10---10h11p10----10~|----11--------16----|
G|-----8----------13----|--------------------|
D|----------------------|--------------------|
A|----------------------|--------------------|
E|----------------------|--------------------|

Quieter part
7x	 	  8th time
e|----------------|-----------------|------|
B|----------------|-----------------|------|
G|----------------|-----------------|--xx--|
D|-8h9p8----8-----|-8h9p8----8------|--xx--|
A|-------11-------|-------11--------|--xx--|
E|-------------6--|-------------9^--|--xx--|

Chorus 3
2x, second time there's a pause, you know

e|---------------------|
B|---------------------|
G|--3-3-------------3--|
D|--3-3-------------3--| x3
A|--1-1---1h2p1---1-1--|
E|--1-1---------4---1--|

e|------------------------    ----------|
B|------------------------    ----------|
G|-------6-6-6-8-8--------    ----------|
D|--4-4--6-6-6-8-8-------- x1    --4\---|
A|--4-4--4-4-4-6-6--------    --4\------|
E|--2-2--4-4-4-6-6--------    --2\------|

After the pause - Ending

e|-----------------------------|
B|-----------------------------|
G|-----------3-3------------3--|
D|-----------3-3------------3--| x3
A|-1h2p1---1-1-1--1h2p1---1-1--|
E|-------4---1-1--------4---1--|

e|------------------------------------|
B|------------------------------------|
G|----------------6-6-6-8--8-8-8------|
D|--4--4-4--4-4---6-6-6-8--8-8-8------| x1
A|--4--4-4--4-4---4-4-4-6--6-6-6------|
E|--2--2-2--2-2---4-4-4-6--6-6-6------|


e|----------------------------------|
B|----------------------------------|
G|-----------3-3-3-----------3-3-3--|
D|-----------3-3-3-----------3-3-3--| x3
A|-1h2p1---1-1-1-1-1h2p1---1-1-1-1--|
E|-------4---1-1-1-------4---1-1-1--|

e|------------------------------------------|
B|-(17b20)----------------------------------|
G|------------------6-6-6-6-8--8-8----------|
D|--4-4-4-4-4-4-4-4-6-6-6-6-8--8-8--8\------|
A|--4-4-4-4-4-4-4-4-4-4-4-4-6--6-6--8\------|
E|--2-2-2-2-2-2-2-2-4-4-4-4-6--6-6--6\------|
Related for Scream tab