Song name
# A B C D E F G H I J K L M N O P Q R S T U V W X Y Z

Joel Nielsen - Weve Got Hostiles tab

We've Got Hostiles

Black Mesa Official Soundtrack

Joel Nielsen

Youtube link: http://www.youtube.com/watch?v=H8ZCM4FuI5A

Tabbed By TH1RTE3N
zombiekoala@hotmail.com

Rate how you think is appropriate

E|-----------------------------------------|
B|-----------------------------------------|
G|-----------------------------------------|
D|----7-7-2---8-5-7---(x8)-----------------|
A|-0-0-----0-0-----------------------------|
E|-----------------------------------------|

E|-----------------------------------------|
B|-----------------------------------------|
G|-----------------------------------------|
D|----8-8-7---8-5-7---(x8)-----------------|
A|-0-0-----0-0-----------------------------|
E|-----------------------------------------|

E|-----------------------------------------|
B|-----------------------------------------|
G|-----------------------------------------|
D|----7-7-2---8-5-7---(x4)-----------------|
A|-0-0-----0-0-----------------------------|
E|-----------------------------------------|

E|-----------------------------------------|
B|-----------------------------------------|
G|-----------------------------------------|
D|----8-8-7---8-5-7---(x8)-----------------|
A|-0-0-----0-0-----------------------------|
E|-----------------------------------------|

T his should be 100% accurate.

Thanks to Joel Nielsen for the song and to JoelNielsenMusic for the song on youtube


This is the theme tune for Black Mesa in chapter 2 (We've Got Hostiles). Black Mesa is a 
brilliant (FREE) Sci-fi FPS
which is a remake of Half Life 1. This is my first guitar tab I have posted, but im 
pretty sure it is 100% correct.
If you have any corrections/comments, please send me an email.
Tap to rate this tab
# A B C D E F G H I J K L M N O P Q R S T U V W X Y Z