Song name
# A B C D E F G H I J K L M N O P Q R S T U V W X Y Z

Joel Plaskett - Absentminded Melody tab

Solid Plaskett song that no one has added yet. this isn't exactly right but it'll give 
an idea and you can fake it after that

capo 3:
e-0h2------0h2-------0h2p0----0------------|
b-----3-3-------3-3--------3----3----------|
g------------------------------------------|
d-0--------0---------0---------------------|
a------------------------------------------|
e------------------------------------------|


e--------------0-2-5-7---7---9-10-9-7-5---2-3-2-------|
b---3--------3----------------------------------3-----|
g-----------------------------------------------------|
d-0---0-----------------------------------------------|
a-----------------------------------------------------|
e-----------------------------------------------------|


e----0h2p0---0------------------------|
b----------3---3-------------------3--|
g-----------------2-4---2-4---2-4-----|
d-0-----------------------------------|
a-------------------------------------|
e-------------------------------------|


the intro doesn't really break into 3 parts very neatly the way its tabbed,
so fool around while you listen to get it, also its not totally right,
just a little guideline.
for a verse i usually just play D, Bm, A, G, but I don't know if thats right.
there are youtube versions of the song where you can watch what he plays
but they are usually different from the album version
Tap to rate this tab
 
# A B C D E F G H I J K L M N O P Q R S T U V W X Y Z