Guitaretab - guitar tabs
Song name
# A B C D E F G H I J K L M N O P Q R S T U V W X Y Z

Joel Plaskett - Drunk Teenagers tab

Not the Intro riff, this is played right after the chorus. Not 100%, but should give you 
solid idea, add slides or hammer-ons where you think it works.

E|------10--14p12p10---------------------------------------|
B|-------------------14p12p10\7---10b12b10--7--------------|
G|--/11-------------------------7--------------9--7--------|
D|---------------------------------------------------9--7--|
A|---------------------------------------------------------|
E|---------------------------------------------------------|
[ Tab from: http://www.guitaretab.com/j/joel-plaskett/184247.html ]
E|------10--14p12p10---------------------------------------|
B|-------------------14p12p10\7---10h12p10-----------------|
G|--/11-------------------------7----------12p11p9-\-7-----|
D|---------------------------------------------------------|
A|---------------------------------------------------------|
E|---------------------------------------------------------|

E|----------------------------------------------------------------------------|
B|----------------------------------------------------------------------------|
G|-7--9b11b9p7--------------------------------9b11b9p7------------------------|
D|-------------9-7-9--9-7--9-7-------------7-----------9-7-9--9-7--9-7--------|
A|-----------------------------9-7-----7p9------------------------------9-7---|
E|---------------------------------10---------------------------------------10|
Related for Drunk Teenagers tab
Advertisement will be closed in 10 seconds