Song name
# A B C D E F G H I J K L M N O P Q R S T U V W X Y Z

Joel Plaskett - Lightning Bolt tab

This is just a start, feel free to add to it!

DADGBE

Intro

E ---------------------|
B ---------------------|
G -----------------2---|
D -----------------0---|
A ----------2------0---|
D --0--2/4----0--------|

The rundown in verses (root notes at least)
E -------------------------------------|
B -------------------------------------|
G -----------------------4-4-5-------2-|
D -----------------------5-5-5-------0-|
A --5--4----2------------3-3-3--0----0-|
D -------------5----------------0------|
                      (sometimes he ends with)

Chorus:
Sometimes he adds in a riff between the 7 & 9)
E -----------------------|
B -----------------------|
G ----7------------------|
D ----7---7------9---5---|
A ----5---7------9---5---|
D --------7------9---5---|

That's all I gots time for :(
Tap to rate this tab
 
# A B C D E F G H I J K L M N O P Q R S T U V W X Y Z