Guitaretab - guitar tabs
Song name
# A B C D E F G H I J K L M N O P Q R S T U V W X Y Z

Joel Plaskett - Natural Disaster tab

standard
Rhythm Guitar intro/chorus (both guitars play chorus, intro is seperate)
e----------------------------------------------------------------------------|
b----------------------------------------------------------------------------|
g-77777777----------77777777----------77777777----------77777777----------4~-|
d-77777777-44444444-77777777-44444444-77777777-44444444-77777777-44444444-4~-|
a-55555555-44444444-55555555-44444444-55555555-44444444-55555555-44444444-2~-|
e----------22222222----------22222222----------22222222----------22222222----|

Lead Guitar intro
e------------------------------------------------|
b-------------7-10-7---7---------------7---7-----|
g-9-9-7-9-9-9--------9-----9-9-7-9-9-9---6---9-6-|
d------------------------------------------------|
a------------------------------------------------|
e------------------------------------------------|

e---------------------------------------------------|
b-------------7-10-7---7---------------7---7--------|
g-9-9-7-9-9-9--------9-----9-9-7-9-9-9---6---9-6/7~-|
d---------------------------------------------------|
a---------------------------------------------------|
e---------------------------------------------------|
[ Tab from: http://www.guitaretab.com/j/joel-plaskett/72074.html ]
verses (it's bass for first part of bass but if you're easily bored, i'll tab out the bass)
bass throughout guitarless verse
e-----------------------------------------------|
b-----------------------------------------------|
g-----------------------T-----------------------|
d---do this rhythm 3x---H-----------------------|
a-2222222222------------E-----------------------|
e------------2222222222-N-3333333333-5555555555-|

guitar verse
e-77--77--22--2-2--22--22--22--2-2--22--22--2-2--33--33-5555-5555-|
b-77--77--33--3-3--33--33--33--3-3--33--33--3-3--33--33-5555-5555-|
g-88--88--44--4-4--44--44--44--4-4--44--44--4-4--44--44-6666-6666-|
d-----------------------------------------------------------------|
a-----------------------------------------------------------------|
e-----------------------------------------------------------------|

intro/chorus (both guitars)

post-chorus
Rhythm Guitar
e-------------------------------------|
b-------------------------------------|
g-44444444----------44444444----------|
d-44444444-44444444-44444444-44444444-|
a-22222222-44444444-22222222-44444444-|
e----------22222222----------22222222-|

Lead Guitar
e------------------------------------------|
b--/15-14-12-10-7-5-3-5/15-14-12-10-7-5-3-5|
g------------------------------------------|
d------------------------------------------|
a------------------------------------------|
e------------------------------------------|

verse
chorus
post-chorus

bridge
e--------------------------------|
b--------------------------------|
g-777777--------4444444444444444-|
d-777777-444444-4444444444444444-|
a-555555-444444-2222222222222222-|
e--------222222------------------|

intro(lead/rhythm parts)

small riff before last chorus
e----19--15-14-|
b-15-----------|
g--------------|
d--------------|
a--------------|
e--------------|

chorus
post-chorus
Related for Natural Disaster tab
Natural Disaster chords by Joel Plaskett