Guitaretab - guitar tabs
Song name
# A B C D E F G H I J K L M N O P Q R S T U V W X Y Z

Joel Plaskett - Radio Fly tab

Intro Guitar riff

e---------------------------------------------------------------------|
b-(8)-(5)-(7)-8-8-8-8-7-7-7-7-5-5-5-5---8-8-8-8-7-7-7-7-5-5-5-5-8-----|
g-(7)-(7)-(7)--7-7-7-7-7-7-7-7-7-7-7-7-7-7-7-7-7-7-7-7-7-7-7-7--7-----|
d---------------------------------------------------------------------|
a---------------------------------------------------------------------|
e---------------------------------------------------------------------|

Verse 1
-------
I don't think I can take it any longer
This music sucks
This cup of coffee if they make it any stronger
Might wake somebody up
It's like a game
When you're in it you can't win it
So why even try
The radio, if it's on another minute
Better learn to fly
e---------------------------------------------------------------------|
b-8-8-8-8-7-7-7-7-5-5-5-5---8-8-8-8-7-7-7-7-5-5-5-5-------------------|
g--7-7-7-7-7-7-7-7-7-7-7-7-7-7-7-7-7-7-7-7-7-7-7-7-7------------------|
d----------------------------------------------------5-9-7------------|
a----------------------------------------------------3-7-5------------|
e---------------------------------------------------------------------|


Chorus Guitar Riff
e-3333333333333333---------------------------------------------------|
b-3333333333333333---------------------------------------------------|
g-4444444444444444-7777777777777777-----------------55555555---------|  (X2)
d-5555555555555555-7777777777777777-999-----777-----55555555-5-9-7---|
a-5555555555555555-5555555555555555-777777776666666633333333-3-7-5---|
e-3333333333333333-5555555555555555-----------------33333333---------|
                                       -P.M-   -P.M-
                                  (Palm Mute the singles notes)
Chorus Lyrics
-------------
Bye bye, so long
Daytime turns to nighttime and I'm gone
Bye bye, so long
AM turns to FM and I'm gone
[ Tab from: http://www.guitaretab.com/j/joel-plaskett/80474.html ]
Verse 2
-------
Under the radar we could fly
We could fly now
And never be dedected
All of our lives we could try
We could try now
And never be respected
It's like a drug
When you hit it
You can't quit it
And all the pain it brings
The radio if it's on another minute
Better grow some wings and fly
e---------------------------------------------------------------------|
b-8-8-8-8-7-7-7-7-5-5-5-5---8-8-8-8-7-7-7-7-5-5-5-5-------------------|
g--7-7-7-7-7-7-7-7-7-7-7-7-7-7-7-7-7-7-7-7-7-7-7-7-7------------------|
d----------------------------------------------------5-9-7------------|
a----------------------------------------------------3-7-5------------|
e---------------------------------------------------------------------|


Chorus Guitar Riff
e-3333333333333333---------------------------------------------------|
b-3333333333333333---------------------------------------------------|
g-4444444444444444-7777777777777777-----------------55555555---------|  (X2)
d-5555555555555555-7777777777777777-999-----777-----55555555-5-9-7---|
a-5555555555555555-5555555555555555-777777776666666633333333-3-7-5---|
e-3333333333333333-5555555555555555-----------------33333333---------|
                                       -P.M-   -P.M-
                                  (Palm Mute the singles notes)

Chorus Lyrics
-------------
Bye bye, so long
Daytime turns to nighttime and I'm gone
Bye bye, so long
AM turns to FM and I'm gone


Guitar Solo (not exact, recording has harmony notes, but it works)
e----------------------------------------------------------------|
b---------------------------------------------------15b17b15-----|
g--12-14-16-12-14-16-11-12-14-11-12-14--14b15b14-------------12--|
d------------------------------------------------12--------------|
a----------------------------------------------------------------|
e----------------------------------------------------------------|

e-----------------------------------------|
b-10-12p10--------------------------------|
g----------12-11-12p11-9----9----9-11-12--|
d------------------------12---12----------|
a-----------------------------------------|
e-----------------------------------------|


Chorus Guitar Riff
e-3333333333333333---------------------------------------------------|
b-3333333333333333---------------------------------------------------|
g-4444444444444444-7777777777777777-----------------55555555---------|  (X2)
d-5555555555555555-7777777777777777-999-----777-----55555555-5-9-7---|
a-5555555555555555-5555555555555555-777777776666666633333333-3-7-5---|
e-3333333333333333-5555555555555555-----------------33333333---------|
                                       -P.M-   -P.M-
                                  (Palm Mute the singles notes)
Chorus Lyrics
-------------
Bye bye, so long
Daytime turns to nighttime and I'm gone
Bye bye, so long
AM turns to FM and I'm gone


Outro guitar riff
e---------------------------------------------------------------------|
b-8-8-8-8-7-7-7-7-5-5-5-5---8-8-8-8-7-7-7-7-5-5-5-5-5-5-5-5--8--------|
g--7-7-7-7-7-7-7-7-7-7-7-7-7-7-7-7-7-7-7-7-7-7-7-7-7-7-7-7-7-7--------|
d---------------------------------------------------------------------|
a---------------------------------------------------------------------|
e---------------------------------------------------------------------|
Related for Radio Fly tab