Song name
# A B C D E F G H I J K L M N O P Q R S T U V W X Y Z

Joel Veitch - We Like Tha Moon tab

Help us improve GuitareTab! Take a short survey!
-------------------------------------------------------------------------------
	     WE LIKE THA' MOON - Spong Monkeys (rathergood.com)
-------------------------------------------------------------------------------

If you too ever aspired to be a spong monkey... sing like you mean it.

Tabbed by: Mark Sutheran	
Email: mark_sutheran@yahoo.com

Tuning: EADGBe

You'll get the rhythm from listening to the song

Chords:   D#  A#  G#  B#m
e|---------6---6---4---8-----------------------------------------------------|
B|---------8---6---4---8-----------------------------------------------------|
G|---------8---7---5---8-----------------------------------------------------|
D|---------8---8---6--10-----------------------------------------------------|
A|---------6---8---6--10-----------------------------------------------------|
E|---------6---6---4---8-----------------------------------------------------|


A#
               D# G# A#
We like the moon	

             D#       G# A#
Coz it is close to us

                B#m A#
We like the mooooon

              B#m          G# A#
But not as much as a spoon	

                                 D# G# A#
Coz thats more use for eating soup

                 D#                 G# A#
And a fork isnt very useful for that

                       B#m          G# A#
Unless it has got many vegatables

	  	       B#m                        G# A#
And then you might be better off with a chop-stick

(Now repeat the D# G# A#/B#m G# A# progressions for the rest of this sillyness...)
Related for We Like Tha Moon tab