Guitaretab - guitar tabs
Song name
# A B C D E F G H I J K L M N O P Q R S T U V W X Y Z

Joey Cape - Violins tab

----------------------------------------------------------------------------
			     Violins - Joey Cape
----------------------------------------------------------------------------
Tabbed by: Jon Petersen
Email: jmbpetersen@hotmail.com

Tuning: Standard
            
     Verse
e|------------------------|
B|------------------------|
G|--9---------------14----|
D|--9----9----11----14----|
A|--7----9----11----12----|
E|--x----7----9-----x-----|
[ Tab from: http://www.guitaretab.com/j/joey-cape/135963.html ]
     Bridge
e|------------------------------|
B|------------------------------|
G|--9----13----14----14---------|
D|--9----13----14----14--14-14--|
A|--7----11----12----12--14-14--|
E|--x----x-----x-----12--12-11--|

     Chorus
e|----------------------------------|
B|----------------------------------|
G|-------------------------------9--|
D|--14----12----11----10--10--9--9--|
A|--14----12----11----10--10--9--7--|
E|--12----10----9-----8---7---7--x--|

     Song Order:
     
	Verse x 3
	Bridge x 1
    	Chorus x 1
     
    	Verse x 3
     	Bridge x 1
     	Chorus x 2
 
     	Solo (Verse chords)

     	Verse X 3
     	Bridge x 1
     	Chorus x 2
Related for Violins tab
Violins chords by Joey Cape